  0
SECTION
  2
HEADER
  9
$ACADVER
  1
AC1009
999
DXF CREATED BY CADSTD VERSION 3.7.3
999
CadStd_Unit=mm
999
CadStd_Export_Unit=mm
999
CadStd_Paper_Size=A3
999
CadStd_Drawing_Width=419.999160000000018
999
CadStd_Drawing_Height=296.999660000000006
999
CadStd_Paper_Orientation=Landscape
999
CadStd_Paper_Origin_X=0.0
999
CadStd_Paper_Origin_Y=0.0
999
CadStd_Paper_Scale=1
999
CadStd_Dim_Accuracy_General=2
999
CadStd_Dim_Accuracy_Radial=2
999
CadStd_Dim_Accuracy_Angular=1
999
CadStd_Dim_Simplify=FALSE
999
CadStd_Dim_Style=Horizontal
999
CadStd_Dim_ArrowStyle=Closed
999
CadStd_Dim_LeadArrowStyle=Closed
999
CadStd_Dim_AngularDimStyle=Decimal
999
CadStd_Text_Slant=FALSE
999
CadStd_Text_ZeroSlash=FALSE
  0
ENDSEC
  0
SECTION
  2
TABLES
  0
TABLE
  2
LTYPE
 70
     3
  0
LTYPE
  2
LINETYPE_1
 70
    64
  3
See CAD-STD manual for LINETYPE_1
 72
    65
 73
     0
 40
0.0
  0
LTYPE
  2
LINETYPE_2
 70
    64
  3
See CAD-STD manual for LINETYPE_2
 72
    65
 73
     0
 40
0.0
  0
LTYPE
  2
LINETYPE_3
 70
    64
  3
See CAD-STD manual for LINETYPE_3
 72
    65
 73
     2
 40
3.9674800000000001
 49
3.1750000000000003
 49
-0.7924800000000001
  0
LTYPE
  2
LINETYPE_4
 70
    64
  3
See CAD-STD manual for LINETYPE_4
 72
    65
 73
     4
 40
25.4000000000000021
 49
19.0500000000000007
 49
-1.5875000000000001
 49
3.1750000000000003
 49
-1.5875000000000001
  0
LTYPE
  2
LINETYPE_5
 70
    64
  3
See CAD-STD manual for LINETYPE_5
 72
    65
 73
     2
 40
7.9375000000000009
 49
6.3500000000000005
 49
-1.5875000000000001
  0
LTYPE
  2
LINETYPE_6
 70
    64
  3
See CAD-STD manual for LINETYPE_6
 72
    65
 73
     6
 40
30.1625000000000014
 49
19.0500000000000007
 49
-1.5875000000000001
 49
3.1750000000000003
 49
-1.5875000000000001
 49
3.1750000000000003
 49
-1.5875000000000001
  0
LTYPE
  2
LINETYPE_7
 70
    64
  3
See CAD-STD manual for LINETYPE_7
 72
    65
 73
     6
 40
30.1625000000000014
 49
19.0500000000000007
 49
-1.5875000000000001
 49
3.1750000000000003
 49
-1.5875000000000001
 49
3.1750000000000003
 49
-1.5875000000000001
  0
LTYPE
  2
LINETYPE_8
 70
    64
  3
See CAD-STD manual for LINETYPE_8
 72
    65
 73
     2
 40
3.1750000000000003
 49
1.5875000000000001
 49
-1.5875000000000001
  0
LTYPE
  2
LINETYPE_9
 70
    64
  3
See CAD-STD manual for LINETYPE_9
 72
    65
 73
     2
 40
1.5875000000000001
 49
0.00254
 49
-1.5849600000000002
  0
LTYPE
  2
LINETYPE_10
 70
    64
  3
See CAD-STD manual for LINETYPE_10
 72
    65
 73
     4
 40
14.2875000000000014
 49
9.5250000000000004
 49
-1.5875000000000001
 49
1.5875000000000001
 49
-1.5875000000000001
  0
LTYPE
  2
LINETYPE_11
 70
    64
  3
See CAD-STD manual for LINETYPE_11
 72
    65
 73
     0
 40
0.0
  0
ENDTAB
  0
TABLE
  2
LAYER
 70
    15
  0
LAYER
  2
1
 70
     0
 62
     2
  6
CONTINUOUS
  0
LAYER
  2
2
 70
     0
 62
     4
  6
CONTINUOUS
  0
LAYER
  2
3
 70
     0
 62
     3
  6
CONTINUOUS
  0
LAYER
  2
4
 70
     0
 62
     9
  6
CONTINUOUS
  0
LAYER
  2
5
 70
     0
 62
     5
  6
CONTINUOUS
  0
LAYER
  2
6
 70
     0
 62
     6
  6
CONTINUOUS
  0
LAYER
  2
7
 70
     0
 62
     1
  6
CONTINUOUS
  0
LAYER
  2
8
 70
     0
 62
    40
  6
CONTINUOUS
  0
LAYER
  2
9
 70
     0
 62
    30
  6
CONTINUOUS
  0
LAYER
  2
10
 70
     0
 62
   134
  6
CONTINUOUS
  0
LAYER
  2
11
 70
     0
 62
    94
  6
CONTINUOUS
  0
LAYER
  2
12
 70
     0
 62
   254
  6
CONTINUOUS
  0
LAYER
  2
13
 70
     0
 62
   174
  6
CONTINUOUS
  0
LAYER
  2
14
 70
     0
 62
   214
  6
CONTINUOUS
  0
LAYER
  2
15
 70
     0
 62
    32
  6
CONTINUOUS
  0
ENDTAB
  0
ENDSEC
  0
SECTION
  2
ENTITIES
  0
TEXT
999
CadStd_TT=3
  8
1
 10
96.0018400000000014
 20
56.9976000000000056
 30
0.0
 40
5.0012600000000003
  1
M
 50
0.00000000000
  0
TEXT
999
CadStd_TT=2
  8
12
 10
83.002120000000005
 20
259.999480000000005
 30
0.0
 40
3.5001200000000003
  1
A
 50
0.00000000000
  0
TEXT
999
CadStd_TT=2
  8
12
 10
83.002120000000005
 20
31.9989200000000018
 30
0.0
 40
3.5001200000000003
  1
N
 50
0.00000000000
  0
TEXT
999
CadStd_TT=2
  8
12
 10
92.9970200000000062
 20
19.9999600000000015
 30
0.0
 40
3.5001200000000003
  1
EVAP
 50
0.00000000000
  0
TEXT
999
CadStd_TT=2
  8
12
 10
92.9970200000000062
 20
14.9987000000000013
 30
0.0
 40
3.5001200000000003
  1
FAN
 50
0.00000000000
  0
TEXT
999
CadStd_TT=1
  8
6
 10
304.002440000000036
 20
258.000499999999988
 30
0.0
 40
1.7500600000000002
  1
OR
 50
0.00000000000
  0
TEXT
999
CadStd_TT=1
  8
2
 10
297.002200000000016
 20
263.999979999999994
 30
0.0
 40
1.7500600000000002
  1
X4/3
 50
0.00000000000
  0
TEXT
999
CadStd_TT=3
  8
1
 10
322.000879999999995
 20
242.999260000000021
 30
0.0
 40
5.0012600000000003
  1
M
 50
0.00000000000
  0
TEXT
999
CadStd_TT=1
  8
3
 10
335.00060000000002
 20
232.999280000000027
 30
0.0
 40
1.7500600000000002
  1
1
 50
0.00000000000
  0
TEXT
999
CadStd_TT=1
  8
3
 10
341.002620000000036
 20
254.000000000000028
 30
0.0
 40
1.7500600000000002
  1
2
 50
0.00000000000
  0
TEXT
999
CadStd_TT=1
  8
3
 10
341.002620000000036
 20
262.001000000000033
 30
0.0
 40
1.7500600000000002
  1
3
 50
0.00000000000
  0
TEXT
999
CadStd_TT=1
  8
3
 10
313.001660000000015
 20
262.001000000000033
 30
0.0
 40
1.7500600000000002
  1
4
 50
0.00000000000
  0
TEXT
999
CadStd_TT=1
  8
12
 10
312.003440000000012
 20
274.998179999999991
 30
0.0
 40
1.7500600000000002
  1
DEFROST
 50
0.00000000000
  0
TEXT
999
CadStd_TT=1
  8
12
 10
312.003440000000012
 20
271.998440000000016
 30
0.0
 40
1.7500600000000002
  1
TIMER
 50
0.00000000000
  0
TEXT
999
CadStd_TT=1
  8
2
 10
353.001580000000047
 20
267.997940000000028
 30
0.0
 40
1.7500600000000002
  1
X4/2
 50
0.00000000000
  0
TEXT
999
CadStd_TT=1
  8
6
 10
347.004639999999995
 20
262.001000000000033
 30
0.0
 40
1.7500600000000002
  1
WH
 50
0.00000000000
  0
TEXT
999
CadStd_TT=1
  8
2
 10
353.001580000000047
 20
259.996939999999995
 30
0.0
 40
1.7500600000000002
  1
X4/4
 50
0.00000000000
  0
TEXT
999
CadStd_TT=1
  8
6
 10
347.004639999999995
 20
254.000000000000028
 30
0.0
 40
1.7500600000000002
  1
RD
 50
0.00000000000
  0
TEXT
999
CadStd_TT=1
  8
2
 10
336.999580000000037
 20
219.001340000000027
 30
0.0
 40
1.7500600000000002
  1
X4/1
 50
0.00000000000
  0
TEXT
999
CadStd_TT=1
  8
6
 10
333.001620000000003
 20
224.000060000000019
 30
0.0
 40
1.7500600000000002
  1
PK
 50
90.00000000000
  0
TEXT
999
CadStd_TT=1
  8
12
 10
371.005100000000027
 20
222.999300000000005
 30
0.0
 40
1.7500600000000002
  1
FROST
 50
0.00000000000
  0
TEXT
999
CadStd_TT=1
  8
12
 10
371.005100000000027
 20
219.999560000000002
 30
0.0
 40
1.7500600000000002
  1
KLIXON
 50
0.00000000000
  0
TEXT
999
CadStd_TT=3
  8
1
 10
385.003039999999999
 20
56.9976000000000056
 30
0.0
 40
5.0012600000000003
  1
M
 50
0.00000000000
  0
TEXT
999
CadStd_TT=2
  8
12
 10
372.999000000000024
 20
19.9999600000000015
 30
0.0
 40
3.5001200000000003
  1
COMPRESSOR
 50
0.00000000000
  0
TEXT
999
CadStd_TT=2
  8
12
 10
322.999099999999999
 20
19.9999600000000015
 30
0.0
 40
3.5001200000000003
  1
DEFROST
 50
0.00000000000
  0
TEXT
999
CadStd_TT=2
  8
12
 10
322.999099999999999
 20
14.9987000000000013
 30
0.0
 40
3.5001200000000003
  1
ELEMENT
 50
0.00000000000
  0
TEXT
999
CadStd_TT=1
  8
12
 10
338.005420000000015
 20
59.9998800000000045
 30
0.0
 40
1.7500600000000002
  1
FUSE
 50
0.00000000000
  0
TEXT
999
CadStd_TT=2
  8
12
 10
117.9957000000000136
 20
19.9999600000000015
 30
0.0
 40
3.5001200000000003
  1
LIGHT
 50
0.00000000000
  0
TEXT
999
CadStd_TT=1
  8
2
 10
125.0010200000000111
 20
78.000860000000003
 30
0.0
 40
1.7500600000000002
  1
X3/1
 50
0.00000000000
  0
TEXT
999
CadStd_TT=1
  8
2
 10
125.0010200000000111
 20
44.0029600000000016
 30
0.0
 40
1.7500600000000002
  1
X3/2
 50
0.00000000000
  0
TEXT
999
CadStd_TT=1
  8
6
 10
121.003060000000005
 20
69.001640000000009
 30
0.0
 40
1.7500600000000002
  1
GY
 50
90.00000000000
  0
TEXT
999
CadStd_TT=1
  8
6
 10
121.003060000000005
 20
49.0016800000000004
 30
0.0
 40
1.7500600000000002
  1
BR
 50
90.00000000000
  0
TEXT
999
CadStd_TT=1
  8
12
 10
127.0025400000000104
 20
231.998520000000013
 30
0.0
 40
1.7500600000000002
  1
DOOR
 50
0.00000000000
  0
TEXT
999
CadStd_TT=1
  8
12
 10
127.0025400000000104
 20
228.998780000000011
 30
0.0
 40
1.7500600000000002
  1
SWITCH
 50
0.00000000000
  0
TEXT
999
CadStd_TT=1
  8
2
 10
125.0010200000000111
 20
213.001860000000022
 30
0.0
 40
1.7500600000000002
  1
X2/2
 50
0.00000000000
  0
TEXT
999
CadStd_TT=1
  8
6
 10
121.003060000000005
 20
238.000540000000001
 30
0.0
 40
1.7500600000000002
  1
BR
 50
90.00000000000
  0
TEXT
999
CadStd_TT=1
  8
6
 10
121.003060000000005
 20
218.000580000000014
 30
0.0
 40
1.7500600000000002
  1
GY
 50
90.00000000000
  0
TEXT
999
CadStd_TT=1
  8
3
 10
156.001720000000006
 20
221.000320000000016
 30
0.0
 40
1.7500600000000002
  1
5
 50
0.00000000000
  0
TEXT
999
CadStd_TT=1
  8
3
 10
166.0017
 20
221.000320000000016
 30
0.0
 40
1.7500600000000002
  1
3
 50
0.00000000000
  0
TEXT
999
CadStd_TT=1
  8
3
 10
156.001720000000006
 20
188.998860000000008
 30
0.0
 40
1.7500600000000002
  1
6
 50
0.00000000000
  0
TEXT
999
CadStd_TT=1
  8
3
 10
166.0017
 20
188.998860000000008
 30
0.0
 40
1.7500600000000002
  1
1
 50
0.00000000000
  0
TEXT
999
CadStd_TT=1
  8
3
 10
176.001680000000022
 20
188.998860000000008
 30
0.0
 40
1.7500600000000002
  1
4
 50
0.00000000000
  0
TEXT
999
CadStd_TT=1
  8
3
 10
186.001660000000015
 20
188.998860000000008
 30
0.0
 40
1.7500600000000002
  1
11
 50
0.00000000000
  0
TEXT
999
CadStd_TT=1
  8
3
 10
196.001640000000009
 20
188.998860000000008
 30
0.0
 40
1.7500600000000002
  1
12
 50
0.00000000000
  0
TEXT
999
CadStd_TT=1
  8
3
 10
227.002340000000004
 20
221.000320000000016
 30
0.0
 40
1.7500600000000002
  1
5
 50
0.00000000000
  0
TEXT
999
CadStd_TT=1
  8
3
 10
237.002320000000026
 20
221.000320000000016
 30
0.0
 40
1.7500600000000002
  1
3
 50
0.00000000000
  0
TEXT
999
CadStd_TT=1
  8
3
 10
227.002340000000004
 20
188.998860000000008
 30
0.0
 40
1.7500600000000002
  1
6
 50
0.00000000000
  0
TEXT
999
CadStd_TT=1
  8
3
 10
237.002320000000026
 20
188.998860000000008
 30
0.0
 40
1.7500600000000002
  1
1
 50
0.00000000000
  0
TEXT
999
CadStd_TT=1
  8
3
 10
247.00230000000002
 20
188.998860000000008
 30
0.0
 40
1.7500600000000002
  1
4
 50
0.00000000000
  0
TEXT
999
CadStd_TT=1
  8
3
 10
257.002280000000042
 20
188.998860000000008
 30
0.0
 40
1.7500600000000002
  1
11
 50
0.00000000000
  0
TEXT
999
CadStd_TT=1
  8
3
 10
267.002260000000035
 20
188.998860000000008
 30
0.0
 40
1.7500600000000002
  1
12
 50
0.00000000000
  0
TEXT
999
CadStd_TT=1
  8
6
 10
185.000900000000001
 20
258.000499999999988
 30
0.0
 40
1.7500600000000002
  1
BR
 50
0.00000000000
  0
TEXT
999
CadStd_TT=1
  8
12
 10
192.001140000000021
 20
269.996919999999989
 30
0.0
 40
1.7500600000000002
  1
MASTER
 50
0.00000000000
  0
TEXT
999
CadStd_TT=1
  8
12
 10
192.001140000000021
 20
266.997180000000014
 30
0.0
 40
1.7500600000000002
  1
RELAY
 50
0.00000000000
  0
TEXT
999
CadStd_TT=1
  8
6
 10
226.999800000000022
 20
258.000499999999988
 30
0.0
 40
1.7500600000000002
  1
OR
 50
0.00000000000
  0
TEXT
999
CadStd_TT=1
  8
2
 10
178.000660000000011
 20
263.999979999999994
 30
0.0
 40
1.7500600000000002
  1
X1/3
 50
0.00000000000
  0
TEXT
999
CadStd_TT=1
  8
2
 10
234.002580000000023
 20
263.999979999999994
 30
0.0
 40
1.7500600000000002
  1
X1/2
 50
0.00000000000
  0
TEXT
999
CadStd_TT=1
  8
12
 10
214.002620000000007
 20
266.997180000000014
 30
0.0
 40
1.7500600000000002
  1
RELAY
 50
0.00000000000
  0
TEXT
999
CadStd_TT=1
  8
12
 10
214.002620000000007
 20
269.996919999999989
 30
0.0
 40
1.7500600000000002
  1
PROTECTION
 50
0.00000000000
  0
TEXT
999
CadStd_TT=1
  8
12
 10
197.004940000000005
 20
176.999900000000025
 30
0.0
 40
1.7500600000000002
  1
NTC PROBE
 50
0.00000000000
  0
TEXT
999
CadStd_TT=1
  8
12
 10
197.004940000000005
 20
174.000160000000022
 30
0.0
 40
1.7500600000000002
  1
(AIR TEMP)
 50
0.00000000000
  0
TEXT
999
CadStd_TT=1
  8
12
 10
268.005560000000003
 20
176.999900000000025
 30
0.0
 40
1.7500600000000002
  1
NTC PROBE
 50
0.00000000000
  0
TEXT
999
CadStd_TT=1
  8
12
 10
268.005560000000003
 20
174.000160000000022
 30
0.0
 40
1.7500600000000002
  1
(LIQUID TEMP)
 50
0.00000000000
  0
TEXT
999
CadStd_TT=1
  8
12
 10
254.005080000000021
 20
216.99982
 30
0.0
 40
1.7500600000000002
  1
PROTECTION
 50
0.00000000000
  0
TEXT
999
CadStd_TT=1
  8
7
 10
151.003000000000014
 20
244.000020000000006
 30
0.0
 40
1.7500600000000002
  1
1
 50
0.00000000000
  0
TEXT
999
CadStd_TT=1
  8
7
 10
151.003000000000014
 20
137.998199999999997
 30
0.0
 40
1.7500600000000002
  1
2
 50
0.00000000000
  0
TEXT
999
CadStd_TT=1
  8
7
 10
161.002980000000008
 20
137.998199999999997
 30
0.0
 40
1.7500600000000002
  1
3
 50
0.00000000000
  0
TEXT
999
CadStd_TT=2
  8
12
 10
150.997920000000022
 20
19.9999600000000015
 30
0.0
 40
3.5001200000000003
  1
MASTER
 50
0.00000000000
  0
TEXT
999
CadStd_TT=2
  8
12
 10
150.997920000000022
 20
14.9987000000000013
 30
0.0
 40
3.5001200000000003
  1
RELAY
 50
0.00000000000
  0
TEXT
999
CadStd_TT=2
  8
12
 10
221.99854000000002
 20
14.9987000000000013
 30
0.0
 40
3.5001200000000003
  1
RELAY
 50
0.00000000000
  0
TEXT
999
CadStd_TT=1
  8
7
 10
232.003600000000006
 20
137.998199999999997
 30
0.0
 40
1.7500600000000002
  1
4
 50
0.00000000000
  0
TEXT
999
CadStd_TT=2
  8
12
 10
221.99854000000002
 20
19.9999600000000015
 30
0.0
 40
3.5001200000000003
  1
PROTECTION
 50
0.00000000000
  0
TEXT
999
CadStd_TT=1
  8
12
 10
183.004460000000023
 20
205.999080000000021
 30
0.0
 40
1.7500600000000002
  1
RS 124-1056
 50
0.00000000000
  0
TEXT
999
CadStd_TT=1
  8
12
 10
254.005080000000021
 20
205.999080000000021
 30
0.0
 40
1.7500600000000002
  1
RS 124-1056
 50
0.00000000000
  0
TEXT
999
CadStd_TT=1
  8
12
 10
178.005740000000003
 20
165.999160000000018
 30
0.0
 40
1.7500600000000002
  1
LAMP AND
 50
0.00000000000
  0
TEXT
999
CadStd_TT=1
  8
12
 10
178.005740000000003
 20
162.999420000000015
 30
0.0
 40
1.7500600000000002
  1
BUZZER
 50
0.00000000000
  0
TEXT
999
CadStd_TT=1
  8
6
 10
177.002440000000007
 20
198.000620000000026
 30
0.0
 40
1.7500600000000002
  1
A1
 50
0.00000000000
  0
TEXT
999
CadStd_TT=1
  8
6
 10
248.003060000000005
 20
198.000620000000026
 30
0.0
 40
1.7500600000000002
  1
A1
 50
0.00000000000
  0
TEXT
999
CadStd_TT=1
  8
2
 10
125.0010200000000111
 20
246.999760000000009
 30
0.0
 40
1.7500600000000002
  1
X2/1
 50
0.00000000000
  0
CIRCLE
  8
1
  6
LINETYPE_1
999
CadStd_LW=0.6096
 10
99.0015800000000041
 20
260.997700000000009
 30
0.0
 40
0.4978400000000000
  0
CIRCLE
  8
1
  6
LINETYPE_1
999
CadStd_LW=0.6096
 10
99.0015800000000041
 20
32.9971400000000017
 30
0.0
 40
0.4978400000000000
  0
CIRCLE
  8
1
  6
LINETYPE_1
999
CadStd_LW=0.6096
 10
99.0015800000000041
 20
58.9991200000000049
 30
0.0
 40
7.0713600000000003
  0
POLYLINE
  8
1
  6
LINETYPE_2
 66
     1
 10
0.0
 20
0.0
 30
0.0
  0
VERTEX
  8
1
 10
99.0015800000000041
 20
51.9277600000000064
 30
0.0
  0
VERTEX
  8
1
 10
99.0015800000000041
 20
32.999680000000005
 30
0.0
  0
SEQEND
  0
POLYLINE
  8
1
  6
LINETYPE_8
 66
     1
 10
0.0
 20
0.0
 30
0.0
  0
VERTEX
  8
1
 10
99.0015800000000041
 20
261.000240000000019
 30
0.0
  0
VERTEX
  8
1
 10
99.0015800000000041
 20
65.99936000000001
 30
0.0
  0
SEQEND
  0
POLYLINE
  8
1
  6
LINETYPE_1
 66
     1
 10
0.0
 20
0.0
 30
0.0
  0
VERTEX
  8
1
 10
299.001180000000033
 20
262.001000000000033
 30
0.0
  0
VERTEX
  8
1
 10
299.001180000000033
 20
259.999480000000005
 30
0.0
  0
SEQEND
  0
POLYLINE
  8
1
  6
LINETYPE_1
 66
     1
 10
0.0
 20
0.0
 30
0.0
  0
VERTEX
  8
1
 10
299.001180000000033
 20
259.999480000000005
 30
0.0
  0
VERTEX
  8
1
 10
301.002700000000004
 20
259.999480000000005
 30
0.0
  0
SEQEND
  0
POLYLINE
  8
1
  6
LINETYPE_1
 66
     1
 10
0.0
 20
0.0
 30
0.0
  0
VERTEX
  8
1
 10
301.002700000000004
 20
262.001000000000033
 30
0.0
  0
VERTEX
  8
1
 10
299.001180000000033
 20
262.001000000000033
 30
0.0
  0
SEQEND
  0
POLYLINE
  8
1
  6
LINETYPE_1
 66
     1
 10
0.0
 20
0.0
 30
0.0
  0
VERTEX
  8
1
 10
300.00193999999999
 20
261.000240000000019
 30
0.0
  0
VERTEX
  8
1
 10
312.003440000000012
 20
261.000240000000019
 30
0.0
  0
SEQEND
  0
CIRCLE
  8
1
  6
LINETYPE_1
999
CadStd_LW=0.6096
 10
326.003919999999994
 20
260.997700000000009
 30
0.0
 40
1.0007600000000001
  0
POLYLINE
  8
1
  6
LINETYPE_1
 66
     1
 10
0.0
 20
0.0
 30
0.0
  0
VERTEX
  8
1
 10
326.941180000000031
 20
261.350760000000037
 30
0.0
  0
VERTEX
  8
1
 10
333.001620000000003
 20
263.999979999999994
 30
0.0
  0
SEQEND
  0
POLYLINE
  8
1
  6
LINETYPE_1
 66
     1
 10
0.0
 20
0.0
 30
0.0
  0
VERTEX
  8
1
 10
332.000860000000046
 20
262.999220000000037
 30
0.0
  0
VERTEX
  8
1
 10
332.000860000000046
 20
265.000740000000008
 30
0.0
  0
SEQEND
  0
POLYLINE
  8
1
  6
LINETYPE_1
 66
     1
 10
0.0
 20
0.0
 30
0.0
  0
VERTEX
  8
1
 10
332.000860000000046
 20
265.000740000000008
 30
0.0
  0
VERTEX
  8
1
 10
344.00236000000001
 20
265.000740000000008
 30
0.0
  0
SEQEND
  0
POLYLINE
  8
1
  6
LINETYPE_1
 66
     1
 10
0.0
 20
0.0
 30
0.0
  0
VERTEX
  8
1
 10
325.000620000000026
 20
261.000240000000019
 30
0.0
  0
VERTEX
  8
1
 10
312.000900000000001
 20
261.000240000000019
 30
0.0
  0
SEQEND
  0
POLYLINE
  8
1
  6
LINETYPE_1
 66
     1
 10
0.0
 20
0.0
 30
0.0
  0
VERTEX
  8
1
 10
332.000860000000046
 20
259.001260000000002
 30
0.0
  0
VERTEX
  8
1
 10
332.000860000000046
 20
256.999740000000031
 30
0.0
  0
SEQEND
  0
POLYLINE
  8
1
  6
LINETYPE_1
 66
     1
 10
0.0
 20
0.0
 30
0.0
  0
VERTEX
  8
1
 10
332.000860000000046
 20
256.999740000000031
 30
0.0
  0
VERTEX
  8
1
 10
344.00236000000001
 20
256.999740000000031
 30
0.0
  0
SEQEND
  0
CIRCLE
  8
1
  6
LINETYPE_1
999
CadStd_LW=0.6096
 10
325.000620000000026
 20
245.00078000000002
 30
0.0
 40
5.0012600000000003
  0
POLYLINE
  8
3
  6
LINETYPE_3
 66
     1
 70
     1
 10
0.0
 20
0.0
 30
0.0
  0
VERTEX
  8
3
 10
312.000900000000001
 20
269.999459999999999
 30
0.0
  0
VERTEX
  8
3
 10
344.00236000000001
 20
269.999459999999999
 30
0.0
  0
VERTEX
  8
3
 10
344.00236000000001
 20
232.001060000000024
 30
0.0
  0
VERTEX
  8
3
 10
312.000900000000001
 20
232.001060000000024
 30
0.0
  0
SEQEND
  0
CIRCLE
  8
1
  6
LINETYPE_1
999
CadStd_LW=0.6096
 10
316.001400000000046
 20
260.997700000000009
 30
0.0
 40
0.4978400000000000
  0
POLYLINE
  8
1
  6
LINETYPE_1
 66
     1
 10
0.0
 20
0.0
 30
0.0
  0
VERTEX
  8
1
 10
316.001400000000046
 20
261.000240000000019
 30
0.0
  0
VERTEX
  8
1
 10
316.001400000000046
 20
245.00078000000002
 30
0.0
  0
SEQEND
  0
POLYLINE
  8
1
  6
LINETYPE_1
 66
     1
 10
0.0
 20
0.0
 30
0.0
  0
VERTEX
  8
1
 10
316.001400000000046
 20
245.00078000000002
 30
0.0
  0
VERTEX
  8
1
 10
320.001900000000035
 20
245.00078000000002
 30
0.0
  0
SEQEND
  0
POLYLINE
  8
1
  6
LINETYPE_1
 66
     1
 10
0.0
 20
0.0
 30
0.0
  0
VERTEX
  8
1
 10
330.001880000000028
 20
245.00078000000002
 30
0.0
  0
VERTEX
  8
1
 10
334.002380000000016
 20
245.00078000000002
 30
0.0
  0
SEQEND
  0
POLYLINE
  8
1
  6
LINETYPE_1
 66
     1
 10
0.0
 20
0.0
 30
0.0
  0
VERTEX
  8
1
 10
334.002380000000016
 20
245.00078000000002
 30
0.0
  0
VERTEX
  8
1
 10
334.002380000000016
 20
232.001060000000024
 30
0.0
  0
SEQEND
  0
POLYLINE
  8
1
  6
LINETYPE_1
 66
     1
 10
0.0
 20
0.0
 30
0.0
  0
VERTEX
  8
1
 10
357.002080000000035
 20
263.999979999999994
 30
0.0
  0
VERTEX
  8
1
 10
357.002080000000035
 20
266.001500000000021
 30
0.0
  0
SEQEND
  0
POLYLINE
  8
1
  6
LINETYPE_1
 66
     1
 10
0.0
 20
0.0
 30
0.0
  0
VERTEX
  8
1
 10
357.002080000000035
 20
266.001500000000021
 30
0.0
  0
VERTEX
  8
1
 10
355.000560000000007
 20
266.001500000000021
 30
0.0
  0
SEQEND
  0
POLYLINE
  8
1
  6
LINETYPE_1
 66
     1
 10
0.0
 20
0.0
 30
0.0
  0
VERTEX
  8
1
 10
355.000560000000007
 20
263.999979999999994
 30
0.0
  0
VERTEX
  8
1
 10
357.002080000000035
 20
263.999979999999994
 30
0.0
  0
SEQEND
  0
POLYLINE
  8
1
  6
LINETYPE_1
 66
     1
 10
0.0
 20
0.0
 30
0.0
  0
VERTEX
  8
1
 10
356.001320000000021
 20
265.000740000000008
 30
0.0
  0
VERTEX
  8
1
 10
343.99982
 20
265.000740000000008
 30
0.0
  0
SEQEND
  0
POLYLINE
  8
1
  6
LINETYPE_1
 66
     1
 10
0.0
 20
0.0
 30
0.0
  0
VERTEX
  8
1
 10
357.002080000000035
 20
255.998980000000017
 30
0.0
  0
VERTEX
  8
1
 10
357.002080000000035
 20
258.000499999999988
 30
0.0
  0
SEQEND
  0
POLYLINE
  8
1
  6
LINETYPE_1
 66
     1
 10
0.0
 20
0.0
 30
0.0
  0
VERTEX
  8
1
 10
357.002080000000035
 20
258.000499999999988
 30
0.0
  0
VERTEX
  8
1
 10
355.000560000000007
 20
258.000499999999988
 30
0.0
  0
SEQEND
  0
POLYLINE
  8
1
  6
LINETYPE_1
 66
     1
 10
0.0
 20
0.0
 30
0.0
  0
VERTEX
  8
1
 10
355.000560000000007
 20
255.998980000000017
 30
0.0
  0
VERTEX
  8
1
 10
357.002080000000035
 20
255.998980000000017
 30
0.0
  0
SEQEND
  0
POLYLINE
  8
1
  6
LINETYPE_1
 66
     1
 10
0.0
 20
0.0
 30
0.0
  0
VERTEX
  8
1
 10
356.001320000000021
 20
256.999740000000031
 30
0.0
  0
VERTEX
  8
1
 10
343.99982
 20
256.999740000000031
 30
0.0
  0
SEQEND
  0
POLYLINE
  8
1
  6
LINETYPE_1
 66
     1
 10
0.0
 20
0.0
 30
0.0
  0
VERTEX
  8
1
 10
357.002080000000035
 20
256.999740000000031
 30
0.0
  0
VERTEX
  8
1
 10
368.002820000000042
 20
256.999740000000031
 30
0.0
  0
SEQEND
  0
POLYLINE
  8
1
  6
LINETYPE_1
 66
     1
 10
0.0
 20
0.0
 30
0.0
  0
VERTEX
  8
1
 10
368.002820000000042
 20
256.999740000000031
 30
0.0
  0
VERTEX
  8
1
 10
368.002820000000042
 20
225.000820000000004
 30
0.0
  0
SEQEND
  0
POLYLINE
  8
1
  6
LINETYPE_1
 66
     1
 10
0.0
 20
0.0
 30
0.0
  0
VERTEX
  8
1
 10
333.001620000000003
 20
219.001340000000027
 30
0.0
  0
VERTEX
  8
1
 10
335.00314000000003
 20
219.001340000000027
 30
0.0
  0
SEQEND
  0
POLYLINE
  8
1
  6
LINETYPE_1
 66
     1
 10
0.0
 20
0.0
 30
0.0
  0
VERTEX
  8
1
 10
335.00314000000003
 20
219.001340000000027
 30
0.0
  0
VERTEX
  8
1
 10
335.00314000000003
 20
221.002860000000027
 30
0.0
  0
SEQEND
  0
POLYLINE
  8
1
  6
LINETYPE_1
 66
     1
 10
0.0
 20
0.0
 30
0.0
  0
VERTEX
  8
1
 10
333.001620000000003
 20
221.002860000000027
 30
0.0
  0
VERTEX
  8
1
 10
333.001620000000003
 20
219.001340000000027
 30
0.0
  0
SEQEND
  0
POLYLINE
  8
1
  6
LINETYPE_1
 66
     1
 10
0.0
 20
0.0
 30
0.0
  0
VERTEX
  8
1
 10
334.002380000000016
 20
220.002100000000013
 30
0.0
  0
VERTEX
  8
1
 10
334.002380000000016
 20
232.003600000000006
 30
0.0
  0
SEQEND
  0
POLYLINE
  8
1
  6
LINETYPE_1
 66
     1
 10
0.0
 20
0.0
 30
0.0
  0
VERTEX
  8
1
 10
365.003080000000011
 20
216.99982
 30
0.0
  0
VERTEX
  8
1
 10
368.005359999999996
 20
216.99982
 30
0.0
  0
SEQEND
  0
CIRCLE
  8
1
  6
LINETYPE_1
999
CadStd_LW=0.6096
 10
368.005359999999996
 20
224.000060000000019
 30
0.0
 40
1.0007600000000001
  0
POLYLINE
  8
1
  6
LINETYPE_1
 66
     1
 10
0.0
 20
0.0
 30
0.0
  0
VERTEX
  8
1
 10
367.761520000000019
 20
223.029780000000017
 30
0.0
  0
VERTEX
  8
1
 10
366.003840000000025
 20
216.001600000000025
 30
0.0
  0
SEQEND
  0
POLYLINE
  8
1
  6
LINETYPE_1
 66
     1
 10
0.0
 20
0.0
 30
0.0
  0
VERTEX
  8
1
 10
368.002820000000042
 20
216.99982
 30
0.0
  0
VERTEX
  8
1
 10
368.002820000000042
 20
198.998840000000001
 30
0.0
  0
SEQEND
  0
POLYLINE
  8
1
  6
LINETYPE_1
 66
     1
 10
0.0
 20
0.0
 30
0.0
  0
VERTEX
  8
1
 10
368.002820000000042
 20
198.998840000000001
 30
0.0
  0
VERTEX
  8
1
 10
334.002380000000016
 20
198.998840000000001
 30
0.0
  0
SEQEND
  0
CIRCLE
  8
1
  6
LINETYPE_1
999
CadStd_LW=0.6096
 10
334.002380000000016
 20
198.996300000000019
 30
0.0
 40
0.4978400000000000
  0
POLYLINE
  8
1
  6
LINETYPE_1
 66
     1
 10
0.0
 20
0.0
 30
0.0
  0
VERTEX
  8
1
 10
357.002080000000035
 20
265.000740000000008
 30
0.0
  0
VERTEX
  8
1
 10
388.00278000000003
 20
265.000740000000008
 30
0.0
  0
SEQEND
  0
CIRCLE
  8
1
  6
LINETYPE_1
999
CadStd_LW=0.6096
 10
388.00278000000003
 20
58.9991200000000049
 30
0.0
 40
7.0713600000000003
  0
POLYLINE
  8
1
  6
LINETYPE_2
 66
     1
 10
0.0
 20
0.0
 30
0.0
  0
VERTEX
  8
1
 10
388.00278000000003
 20
51.9277600000000064
 30
0.0
  0
VERTEX
  8
1
 10
388.00278000000003
 20
32.999680000000005
 30
0.0
  0
SEQEND
  0
POLYLINE
  8
1
  6
LINETYPE_1
 66
     1
 10
0.0
 20
0.0
 30
0.0
  0
VERTEX
  8
1
 10
388.00278000000003
 20
66.0704800000000034
 30
0.0
  0
VERTEX
  8
1
 10
388.00278000000003
 20
265.000740000000008
 30
0.0
  0
SEQEND
  0
POLYLINE
  8
1
  6
LINETYPE_2
 66
     1
 10
0.0
 20
0.0
 30
0.0
  0
VERTEX
  8
1
 10
87.0026200000000074
 20
32.999680000000005
 30
0.0
  0
VERTEX
  8
1
 10
388.00278000000003
 20
32.999680000000005
 30
0.0
  0
SEQEND
  0
CIRCLE
  8
1
  6
LINETYPE_1
999
CadStd_LW=0.6096
 10
334.002380000000016
 20
32.9971400000000017
 30
0.0
 40
0.4978400000000000
  0
POLYLINE
  8
1
  6
LINETYPE_1
 66
     1
 10
0.0
 20
0.0
 30
0.0
  0
VERTEX
  8
1
 10
334.002380000000016
 20
111.0005400000000009
 30
0.0
  0
VERTEX
  8
1
 10
337.004660000000001
 20
109.9997800000000012
 30
0.0
  0
SEQEND
  0
POLYLINE
  8
1
  6
LINETYPE_1
 66
     1
 10
0.0
 20
0.0
 30
0.0
  0
VERTEX
  8
1
 10
337.004660000000001
 20
109.9997800000000012
 30
0.0
  0
VERTEX
  8
1
 10
334.002380000000016
 20
108.9990200000000016
 30
0.0
  0
SEQEND
  0
POLYLINE
  8
1
  6
LINETYPE_1
 66
     1
 10
0.0
 20
0.0
 30
0.0
  0
VERTEX
  8
1
 10
334.002380000000016
 20
107.0000400000000127
 30
0.0
  0
VERTEX
  8
1
 10
337.004660000000001
 20
105.999280000000013
 30
0.0
  0
SEQEND
  0
POLYLINE
  8
1
  6
LINETYPE_1
 66
     1
 10
0.0
 20
0.0
 30
0.0
  0
VERTEX
  8
1
 10
337.004660000000001
 20
105.999280000000013
 30
0.0
  0
VERTEX
  8
1
 10
334.002380000000016
 20
104.9985200000000134
 30
0.0
  0
SEQEND
  0
POLYLINE
  8
1
  6
LINETYPE_1
 66
     1
 10
0.0
 20
0.0
 30
0.0
  0
VERTEX
  8
1
 10
334.002380000000016
 20
102.9995400000000103
 30
0.0
  0
VERTEX
  8
1
 10
337.004660000000001
 20
101.9987800000000107
 30
0.0
  0
SEQEND
  0
POLYLINE
  8
1
  6
LINETYPE_1
 66
     1
 10
0.0
 20
0.0
 30
0.0
  0
VERTEX
  8
1
 10
337.004660000000001
 20
101.9987800000000107
 30
0.0
  0
VERTEX
  8
1
 10
334.002380000000016
 20
100.998020000000011
 30
0.0
  0
SEQEND
  0
POLYLINE
  8
1
  6
LINETYPE_1
 66
     1
 10
0.0
 20
0.0
 30
0.0
  0
VERTEX
  8
1
 10
334.002380000000016
 20
99.0015800000000041
 30
0.0
  0
VERTEX
  8
1
 10
337.004660000000001
 20
98.0008200000000045
 30
0.0
  0
SEQEND
  0
POLYLINE
  8
1
  6
LINETYPE_1
 66
     1
 10
0.0
 20
0.0
 30
0.0
  0
VERTEX
  8
1
 10
337.004660000000001
 20
98.0008200000000045
 30
0.0
  0
VERTEX
  8
1
 10
334.002380000000016
 20
97.0000600000000048
 30
0.0
  0
SEQEND
  0
POLYLINE
  8
1
  6
LINETYPE_1
 66
     1
 10
0.0
 20
0.0
 30
0.0
  0
VERTEX
  8
1
 10
334.002380000000016
 20
109.001560000000012
 30
0.0
  0
VERTEX
  8
1
 10
331.002640000000042
 20
108.0033400000000086
 30
0.0
  0
SEQEND
  0
POLYLINE
  8
1
  6
LINETYPE_1
 66
     1
 10
0.0
 20
0.0
 30
0.0
  0
VERTEX
  8
1
 10
331.002640000000042
 20
108.0033400000000086
 30
0.0
  0
VERTEX
  8
1
 10
334.002380000000016
 20
107.0025800000000089
 30
0.0
  0
SEQEND
  0
POLYLINE
  8
1
  6
LINETYPE_1
 66
     1
 10
0.0
 20
0.0
 30
0.0
  0
VERTEX
  8
1
 10
334.002380000000016
 20
105.0010600000000096
 30
0.0
  0
VERTEX
  8
1
 10
331.002640000000042
 20
104.0028400000000062
 30
0.0
  0
SEQEND
  0
POLYLINE
  8
1
  6
LINETYPE_1
 66
     1
 10
0.0
 20
0.0
 30
0.0
  0
VERTEX
  8
1
 10
331.002640000000042
 20
104.0028400000000062
 30
0.0
  0
VERTEX
  8
1
 10
334.002380000000016
 20
103.0020800000000065
 30
0.0
  0
SEQEND
  0
POLYLINE
  8
1
  6
LINETYPE_1
 66
     1
 10
0.0
 20
0.0
 30
0.0
  0
VERTEX
  8
1
 10
334.002380000000016
 20
101.0005600000000072
 30
0.0
  0
VERTEX
  8
1
 10
331.002640000000042
 20
100.0023400000000038
 30
0.0
  0
SEQEND
  0
POLYLINE
  8
1
  6
LINETYPE_1
 66
     1
 10
0.0
 20
0.0
 30
0.0
  0
VERTEX
  8
1
 10
331.002640000000042
 20
100.0023400000000038
 30
0.0
  0
VERTEX
  8
1
 10
334.002380000000016
 20
99.0015800000000041
 30
0.0
  0
SEQEND
  0
POLYLINE
  8
1
  6
LINETYPE_1
 66
     1
 10
0.0
 20
0.0
 30
0.0
  0
VERTEX
  8
1
 10
334.002380000000016
 20
97.0000600000000048
 30
0.0
  0
VERTEX
  8
1
 10
331.002640000000042
 20
96.0018400000000014
 30
0.0
  0
SEQEND
  0
POLYLINE
  8
1
  6
LINETYPE_1
 66
     1
 10
0.0
 20
0.0
 30
0.0
  0
VERTEX
  8
1
 10
331.002640000000042
 20
96.0018400000000014
 30
0.0
  0
VERTEX
  8
1
 10
334.002380000000016
 20
95.0010800000000018
 30
0.0
  0
SEQEND
  0
POLYLINE
  8
1
  6
LINETYPE_1
 66
     1
 10
0.0
 20
0.0
 30
0.0
  0
VERTEX
  8
1
 10
334.002380000000016
 20
218.998800000000017
 30
0.0
  0
VERTEX
  8
1
 10
334.002380000000016
 20
111.0005400000000009
 30
0.0
  0
SEQEND
  0
POLYLINE
  8
1
  6
LINETYPE_2
 66
     1
 10
0.0
 20
0.0
 30
0.0
  0
VERTEX
  8
1
 10
334.002380000000016
 20
95.0010800000000018
 30
0.0
  0
VERTEX
  8
1
 10
334.002380000000016
 20
67.0001200000000097
 30
0.0
  0
SEQEND
  0
POLYLINE
  8
1
  6
LINETYPE_2
 66
     1
 70
     1
 10
0.0
 20
0.0
 30
0.0
  0
VERTEX
  8
1
 10
332.000860000000046
 20
67.0001200000000097
 30
0.0
  0
VERTEX
  8
1
 10
336.001360000000034
 20
67.0001200000000097
 30
0.0
  0
VERTEX
  8
1
 10
336.001360000000034
 20
54.0004000000000062
 30
0.0
  0
VERTEX
  8
1
 10
332.000860000000046
 20
54.0004000000000062
 30
0.0
  0
SEQEND
  0
POLYLINE
  8
1
  6
LINETYPE_2
 66
     1
 10
0.0
 20
0.0
 30
0.0
  0
VERTEX
  8
1
 10
334.002380000000016
 20
54.0004000000000062
 30
0.0
  0
VERTEX
  8
1
 10
334.002380000000016
 20
32.999680000000005
 30
0.0
  0
SEQEND
  0
POLYLINE
  8
1
  6
LINETYPE_2
 66
     1
 10
0.0
 20
0.0
 30
0.0
  0
VERTEX
  8
1
 10
334.002380000000016
 20
67.0001200000000097
 30
0.0
  0
VERTEX
  8
1
 10
334.002380000000016
 20
54.0004000000000062
 30
0.0
  0
SEQEND
  0
POLYLINE
  8
1
  6
LINETYPE_2
 66
     1
 10
0.0
 20
0.0
 30
0.0
  0
VERTEX
  8
1
 10
393.001500000000021
 20
54.0004000000000062
 30
0.0
  0
VERTEX
  8
1
 10
397.00200000000001
 20
49.9999000000000038
 30
0.0
  0
SEQEND
  0
POLYLINE
  8
1
  6
LINETYPE_2
 66
     1
 10
0.0
 20
0.0
 30
0.0
  0
VERTEX
  8
1
 10
397.00200000000001
 20
49.9999000000000038
 30
0.0
  0
VERTEX
  8
1
 10
397.00200000000001
 20
45.9994000000000014
 30
0.0
  0
SEQEND
  0
POLYLINE
  8
1
  6
LINETYPE_2
 66
     1
 10
0.0
 20
0.0
 30
0.0
  0
VERTEX
  8
1
 10
395.000480000000039
 20
45.9994000000000014
 30
0.0
  0
VERTEX
  8
1
 10
399.000980000000027
 20
45.9994000000000014
 30
0.0
  0
SEQEND
  0
POLYLINE
  8
1
  6
LINETYPE_2
 66
     1
 10
0.0
 20
0.0
 30
0.0
  0
VERTEX
  8
1
 10
396.501620000000003
 20
44.0004200000000054
 30
0.0
  0
VERTEX
  8
1
 10
397.502380000000016
 20
44.0004200000000054
 30
0.0
  0
SEQEND
  0
POLYLINE
  8
1
  6
LINETYPE_2
 66
     1
 10
0.0
 20
0.0
 30
0.0
  0
VERTEX
  8
1
 10
395.500860000000046
 20
45.0011800000000051
 30
0.0
  0
VERTEX
  8
1
 10
398.50060000000002
 20
45.0011800000000051
 30
0.0
  0
SEQEND
  0
POLYLINE
  8
1
  6
LINETYPE_2
 66
     1
 10
0.0
 20
0.0
 30
0.0
  0
VERTEX
  8
1
 10
337.002120000000048
 20
98.0008200000000045
 30
0.0
  0
VERTEX
  8
1
 10
341.002620000000036
 20
94.0003200000000021
 30
0.0
  0
SEQEND
  0
POLYLINE
  8
1
  6
LINETYPE_2
 66
     1
 10
0.0
 20
0.0
 30
0.0
  0
VERTEX
  8
1
 10
341.002620000000036
 20
94.0003200000000021
 30
0.0
  0
VERTEX
  8
1
 10
341.002620000000036
 20
89.9998199999999997
 30
0.0
  0
SEQEND
  0
POLYLINE
  8
1
  6
LINETYPE_2
 66
     1
 10
0.0
 20
0.0
 30
0.0
  0
VERTEX
  8
1
 10
339.001100000000008
 20
89.9998199999999997
 30
0.0
  0
VERTEX
  8
1
 10
343.001599999999996
 20
89.9998199999999997
 30
0.0
  0
SEQEND
  0
POLYLINE
  8
1
  6
LINETYPE_2
 66
     1
 10
0.0
 20
0.0
 30
0.0
  0
VERTEX
  8
1
 10
340.502240000000029
 20
88.0008400000000108
 30
0.0
  0
VERTEX
  8
1
 10
341.503000000000043
 20
88.0008400000000108
 30
0.0
  0
SEQEND
  0
POLYLINE
  8
1
  6
LINETYPE_2
 66
     1
 10
0.0
 20
0.0
 30
0.0
  0
VERTEX
  8
1
 10
339.501480000000015
 20
89.0016000000000105
 30
0.0
  0
VERTEX
  8
1
 10
342.501220000000046
 20
89.0016000000000105
 30
0.0
  0
SEQEND
  0
POLYLINE
  8
1
  6
LINETYPE_2
 66
     1
 10
0.0
 20
0.0
 30
0.0
  0
VERTEX
  8
1
 10
104.0028400000000062
 20
54.0004000000000062
 30
0.0
  0
VERTEX
  8
1
 10
108.0033400000000086
 20
49.9999000000000038
 30
0.0
  0
SEQEND
  0
POLYLINE
  8
1
  6
LINETYPE_2
 66
     1
 10
0.0
 20
0.0
 30
0.0
  0
VERTEX
  8
1
 10
108.0033400000000086
 20
49.9999000000000038
 30
0.0
  0
VERTEX
  8
1
 10
108.0033400000000086
 20
45.9994000000000014
 30
0.0
  0
SEQEND
  0
POLYLINE
  8
1
  6
LINETYPE_2
 66
     1
 10
0.0
 20
0.0
 30
0.0
  0
VERTEX
  8
1
 10
106.0018200000000093
 20
45.9994000000000014
 30
0.0
  0
VERTEX
  8
1
 10
110.0023200000000116
 20
45.9994000000000014
 30
0.0
  0
SEQEND
  0
POLYLINE
  8
1
  6
LINETYPE_2
 66
     1
 10
0.0
 20
0.0
 30
0.0
  0
VERTEX
  8
1
 10
107.5029600000000016
 20
44.0004200000000054
 30
0.0
  0
VERTEX
  8
1
 10
108.5037200000000013
 20
44.0004200000000054
 30
0.0
  0
SEQEND
  0
POLYLINE
  8
1
  6
LINETYPE_2
 66
     1
 10
0.0
 20
0.0
 30
0.0
  0
VERTEX
  8
1
 10
106.502200000000002
 20
45.0011800000000051
 30
0.0
  0
VERTEX
  8
1
 10
109.5019400000000047
 20
45.0011800000000051
 30
0.0
  0
SEQEND
  0
CIRCLE
  8
1
  6
LINETYPE_1
999
CadStd_LW=0.6096
 10
122.0012800000000084
 20
32.9971400000000017
 30
0.0
 40
0.4978400000000000
  0
POLYLINE
  8
1
  6
LINETYPE_2
 66
     1
 10
0.0
 20
0.0
 30
0.0
  0
VERTEX
  8
1
 10
122.0012800000000084
 20
44.0004200000000054
 30
0.0
  0
VERTEX
  8
1
 10
122.0012800000000084
 20
32.999680000000005
 30
0.0
  0
SEQEND
  0
POLYLINE
  8
1
  6
LINETYPE_1
 66
     1
 10
0.0
 20
0.0
 30
0.0
  0
VERTEX
  8
1
 10
121.003060000000005
 20
79.9998400000000061
 30
0.0
  0
VERTEX
  8
1
 10
123.002040000000008
 20
79.9998400000000061
 30
0.0
  0
SEQEND
  0
POLYLINE
  8
1
  6
LINETYPE_1
 66
     1
 10
0.0
 20
0.0
 30
0.0
  0
VERTEX
  8
1
 10
121.003060000000005
 20
78.000860000000003
 30
0.0
  0
VERTEX
  8
1
 10
121.003060000000005
 20
79.9998400000000061
 30
0.0
  0
SEQEND
  0
POLYLINE
  8
1
  6
LINETYPE_1
 66
     1
 10
0.0
 20
0.0
 30
0.0
  0
VERTEX
  8
1
 10
123.002040000000008
 20
79.9998400000000061
 30
0.0
  0
VERTEX
  8
1
 10
123.002040000000008
 20
78.000860000000003
 30
0.0
  0
SEQEND
  0
POLYLINE
  8
1
  6
LINETYPE_1
 66
     1
 10
0.0
 20
0.0
 30
0.0
  0
VERTEX
  8
1
 10
121.003060000000005
 20
46.0019400000000047
 30
0.0
  0
VERTEX
  8
1
 10
121.003060000000005
 20
44.0004200000000054
 30
0.0
  0
SEQEND
  0
POLYLINE
  8
1
  6
LINETYPE_1
 66
     1
 10
0.0
 20
0.0
 30
0.0
  0
VERTEX
  8
1
 10
121.003060000000005
 20
44.0004200000000054
 30
0.0
  0
VERTEX
  8
1
 10
123.002040000000008
 20
44.0004200000000054
 30
0.0
  0
SEQEND
  0
POLYLINE
  8
1
  6
LINETYPE_1
 66
     1
 10
0.0
 20
0.0
 30
0.0
  0
VERTEX
  8
1
 10
123.002040000000008
 20
44.0004200000000054
 30
0.0
  0
VERTEX
  8
1
 10
123.002040000000008
 20
46.0019400000000047
 30
0.0
  0
SEQEND
  0
CIRCLE
  8
1
  6
LINETYPE_1
999
CadStd_LW=0.6096
 10
122.0012800000000084
 20
62.997080000000004
 30
0.0
 40
3.6068000000000002
  0
POLYLINE
  8
1
  6
LINETYPE_1
 66
     1
 10
0.0
 20
0.0
 30
0.0
  0
VERTEX
  8
1
 10
119.4511200000000031
 20
60.4469200000000058
 30
0.0
  0
VERTEX
  8
1
 10
124.5514400000000137
 20
65.5472400000000022
 30
0.0
  0
SEQEND
  0
POLYLINE
  8
1
  6
LINETYPE_1
 66
     1
 10
0.0
 20
0.0
 30
0.0
  0
VERTEX
  8
1
 10
124.5514400000000137
 20
60.4469200000000058
 30
0.0
  0
VERTEX
  8
1
 10
119.4511200000000031
 20
65.5472400000000022
 30
0.0
  0
SEQEND
  0
POLYLINE
  8
1
  6
LINETYPE_1
 66
     1
 10
0.0
 20
0.0
 30
0.0
  0
VERTEX
  8
1
 10
122.0012800000000084
 20
66.6038800000000038
 30
0.0
  0
VERTEX
  8
1
 10
122.0012800000000084
 20
79.0016200000000026
 30
0.0
  0
SEQEND
  0
POLYLINE
  8
1
  6
LINETYPE_1
 66
     1
 10
0.0
 20
0.0
 30
0.0
  0
VERTEX
  8
1
 10
122.0038200000000046
 20
59.3902800000000042
 30
0.0
  0
VERTEX
  8
1
 10
122.0038200000000046
 20
44.9986400000000018
 30
0.0
  0
SEQEND
  0
POLYLINE
  8
1
  6
LINETYPE_1
 66
     1
 10
0.0
 20
0.0
 30
0.0
  0
VERTEX
  8
1
 10
122.0012800000000084
 20
212.999320000000012
 30
0.0
  0
VERTEX
  8
1
 10
122.0012800000000084
 20
79.9998400000000061
 30
0.0
  0
SEQEND
  0
CIRCLE
  8
1
  6
LINETYPE_1
999
CadStd_LW=0.6096
 10
122.0012800000000084
 20
260.997700000000009
 30
0.0
 40
0.4978400000000000
  0
POLYLINE
  8
1
  6
LINETYPE_8
 66
     1
 10
0.0
 20
0.0
 30
0.0
  0
VERTEX
  8
1
 10
122.0012800000000084
 20
248.998740000000026
 30
0.0
  0
VERTEX
  8
1
 10
122.0012800000000084
 20
261.000240000000019
 30
0.0
  0
SEQEND
  0
POLYLINE
  8
1
  6
LINETYPE_1
 66
     1
 10
0.0
 20
0.0
 30
0.0
  0
VERTEX
  8
1
 10
122.0012800000000084
 20
248.000520000000023
 30
0.0
  0
VERTEX
  8
1
 10
122.0012800000000084
 20
235.999020000000002
 30
0.0
  0
SEQEND
  0
POLYLINE
  8
1
  6
LINETYPE_1
 66
     1
 10
0.0
 20
0.0
 30
0.0
  0
VERTEX
  8
1
 10
122.0038200000000046
 20
227.998020000000025
 30
0.0
  0
VERTEX
  8
1
 10
122.0038200000000046
 20
213.997540000000015
 30
0.0
  0
SEQEND
  0
CIRCLE
  8
1
  6
LINETYPE_1
999
CadStd_LW=0.6096
 10
121.9987400000000122
 20
234.998260000000016
 30
0.0
 40
1.0007600000000001
  0
POLYLINE
  8
1
  6
LINETYPE_1
 66
     1
 10
0.0
 20
0.0
 30
0.0
  0
VERTEX
  8
1
 10
119.0015400000000056
 20
228.000560000000007
 30
0.0
  0
VERTEX
  8
1
 10
122.0038200000000046
 20
228.000560000000007
 30
0.0
  0
SEQEND
  0
POLYLINE
  8
1
  6
LINETYPE_1
 66
     1
 10
0.0
 20
0.0
 30
0.0
  0
VERTEX
  8
1
 10
121.759980000000013
 20
234.030520000000024
 30
0.0
  0
VERTEX
  8
1
 10
120.0023000000000053
 20
227.002340000000004
 30
0.0
  0
SEQEND
  0
POLYLINE
  8
1
  6
LINETYPE_1
 66
     1
 10
0.0
 20
0.0
 30
0.0
  0
VERTEX
  8
1
 10
121.003060000000005
 20
248.998740000000026
 30
0.0
  0
VERTEX
  8
1
 10
123.002040000000008
 20
248.998740000000026
 30
0.0
  0
SEQEND
  0
POLYLINE
  8
1
  6
LINETYPE_1
 66
     1
 10
0.0
 20
0.0
 30
0.0
  0
VERTEX
  8
1
 10
121.003060000000005
 20
246.999760000000009
 30
0.0
  0
VERTEX
  8
1
 10
121.003060000000005
 20
248.998740000000026
 30
0.0
  0
SEQEND
  0
POLYLINE
  8
1
  6
LINETYPE_1
 66
     1
 10
0.0
 20
0.0
 30
0.0
  0
VERTEX
  8
1
 10
123.002040000000008
 20
248.998740000000026
 30
0.0
  0
VERTEX
  8
1
 10
123.002040000000008
 20
246.999760000000009
 30
0.0
  0
SEQEND
  0
POLYLINE
  8
1
  6
LINETYPE_1
 66
     1
 10
0.0
 20
0.0
 30
0.0
  0
VERTEX
  8
1
 10
121.003060000000005
 20
215.000840000000011
 30
0.0
  0
VERTEX
  8
1
 10
121.003060000000005
 20
212.999320000000012
 30
0.0
  0
SEQEND
  0
POLYLINE
  8
1
  6
LINETYPE_1
 66
     1
 10
0.0
 20
0.0
 30
0.0
  0
VERTEX
  8
1
 10
121.003060000000005
 20
212.999320000000012
 30
0.0
  0
VERTEX
  8
1
 10
123.002040000000008
 20
212.999320000000012
 30
0.0
  0
SEQEND
  0
POLYLINE
  8
1
  6
LINETYPE_1
 66
     1
 10
0.0
 20
0.0
 30
0.0
  0
VERTEX
  8
1
 10
123.002040000000008
 20
212.999320000000012
 30
0.0
  0
VERTEX
  8
1
 10
123.002040000000008
 20
215.000840000000011
 30
0.0
  0
SEQEND
  0
POLYLINE
  8
1
  6
LINETYPE_1
 66
     1
 10
0.0
 20
0.0
 30
0.0
  0
VERTEX
  8
1
 10
165.003479999999996
 20
223.997520000000009
 30
0.0
  0
VERTEX
  8
1
 10
165.003479999999996
 20
209.997040000000027
 30
0.0
  0
SEQEND
  0
POLYLINE
  8
1
  6
LINETYPE_1
 66
     1
 10
0.0
 20
0.0
 30
0.0
  0
VERTEX
  8
1
 10
165.003479999999996
 20
201.996040000000022
 30
0.0
  0
VERTEX
  8
1
 10
165.003479999999996
 20
187.995560000000012
 30
0.0
  0
SEQEND
  0
CIRCLE
  8
1
  6
LINETYPE_1
999
CadStd_LW=0.6096
 10
164.998400000000004
 20
208.996280000000013
 30
0.0
 40
1.0007600000000001
  0
POLYLINE
  8
1
  6
LINETYPE_1
 66
     1
 10
0.0
 20
0.0
 30
0.0
  0
VERTEX
  8
1
 10
165.351460000000003
 20
208.059020000000004
 30
0.0
  0
VERTEX
  8
1
 10
168.000680000000017
 20
201.998580000000004
 30
0.0
  0
SEQEND
  0
POLYLINE
  8
1
  6
LINETYPE_1
 66
     1
 10
0.0
 20
0.0
 30
0.0
  0
VERTEX
  8
1
 10
175.003460000000018
 20
201.996040000000022
 30
0.0
  0
VERTEX
  8
1
 10
175.003460000000018
 20
187.995560000000012
 30
0.0
  0
SEQEND
  0
CIRCLE
  8
1
  6
LINETYPE_1
999
CadStd_LW=0.6096
 10
174.998379999999997
 20
208.996280000000013
 30
0.0
 40
1.0007600000000001
  0
POLYLINE
  8
1
  6
LINETYPE_1
 66
     1
 10
0.0
 20
0.0
 30
0.0
  0
VERTEX
  8
1
 10
175.351439999999997
 20
208.059020000000004
 30
0.0
  0
VERTEX
  8
1
 10
178.000660000000011
 20
201.998580000000004
 30
0.0
  0
SEQEND
  0
POLYLINE
  8
1
  6
LINETYPE_1
 66
     1
 70
     1
 10
0.0
 20
0.0
 30
0.0
  0
VERTEX
  8
1
 10
151.000460000000004
 20
208.00060000000002
 30
0.0
  0
VERTEX
  8
1
 10
159.001460000000009
 20
208.00060000000002
 30
0.0
  0
VERTEX
  8
1
 10
159.001460000000009
 20
202.999340000000018
 30
0.0
  0
VERTEX
  8
1
 10
151.000460000000004
 20
202.999340000000018
 30
0.0
  0
SEQEND
  0
POLYLINE
  8
1
  6
LINETYPE_1
 66
     1
 10
0.0
 20
0.0
 30
0.0
  0
VERTEX
  8
1
 10
165.000940000000014
 20
218.000580000000014
 30
0.0
  0
VERTEX
  8
1
 10
175.000920000000008
 20
218.000580000000014
 30
0.0
  0
SEQEND
  0
POLYLINE
  8
1
  6
LINETYPE_1
 66
     1
 10
0.0
 20
0.0
 30
0.0
  0
VERTEX
  8
1
 10
155.00096000000002
 20
208.00060000000002
 30
0.0
  0
VERTEX
  8
1
 10
155.00096000000002
 20
224.000060000000019
 30
0.0
  0
SEQEND
  0
POLYLINE
  8
1
  6
LINETYPE_1
 66
     1
 10
0.0
 20
0.0
 30
0.0
  0
VERTEX
  8
1
 10
155.00096000000002
 20
202.999340000000018
 30
0.0
  0
VERTEX
  8
1
 10
155.00096000000002
 20
188.000640000000004
 30
0.0
  0
SEQEND
  0
CIRCLE
  8
1
  6
LINETYPE_1
999
CadStd_LW=0.6096
 10
165.000940000000014
 20
217.998040000000003
 30
0.0
 40
0.4978400000000000
  0
POLYLINE
  8
1
  6
LINETYPE_1
 66
     1
 10
0.0
 20
0.0
 30
0.0
  0
VERTEX
  8
1
 10
175.003460000000018
 20
209.997040000000027
 30
0.0
  0
VERTEX
  8
1
 10
175.003460000000018
 20
218.000580000000014
 30
0.0
  0
SEQEND
  0
POLYLINE
  8
3
  6
LINETYPE_2
 66
     1
 10
0.0
 20
0.0
 30
0.0
  0
VERTEX
  8
3
 10
185.000900000000001
 20
188.000640000000004
 30
0.0
  0
VERTEX
  8
3
 10
185.000900000000001
 20
175.999140000000011
 30
0.0
  0
SEQEND
  0
POLYLINE
  8
3
  6
LINETYPE_2
 66
     1
 10
0.0
 20
0.0
 30
0.0
  0
VERTEX
  8
3
 10
195.000880000000024
 20
175.999140000000011
 30
0.0
  0
VERTEX
  8
3
 10
195.000880000000024
 20
188.000640000000004
 30
0.0
  0
SEQEND
  0
POLYLINE
  8
3
  6
LINETYPE_2
 66
     1
 70
     1
 10
0.0
 20
0.0
 30
0.0
  0
VERTEX
  8
3
 10
188.000640000000004
 20
178.998880000000014
 30
0.0
  0
VERTEX
  8
3
 10
192.001140000000021
 20
178.998880000000014
 30
0.0
  0
VERTEX
  8
3
 10
192.001140000000021
 20
172.999400000000009
 30
0.0
  0
VERTEX
  8
3
 10
188.000640000000004
 20
172.999400000000009
 30
0.0
  0
SEQEND
  0
POLYLINE
  8
3
  6
LINETYPE_2
 66
     1
 10
0.0
 20
0.0
 30
0.0
  0
VERTEX
  8
3
 10
195.000880000000024
 20
175.999140000000011
 30
0.0
  0
VERTEX
  8
3
 10
192.001140000000021
 20
175.999140000000011
 30
0.0
  0
SEQEND
  0
POLYLINE
  8
3
  6
LINETYPE_2
 66
     1
 10
0.0
 20
0.0
 30
0.0
  0
VERTEX
  8
3
 10
188.000640000000004
 20
175.999140000000011
 30
0.0
  0
VERTEX
  8
3
 10
185.000900000000001
 20
175.999140000000011
 30
0.0
  0
SEQEND
  0
POLYLINE
  8
3
  6
LINETYPE_3
 66
     1
 70
     1
 10
0.0
 20
0.0
 30
0.0
  0
VERTEX
  8
3
 10
148.000720000000001
 20
224.000060000000019
 30
0.0
  0
VERTEX
  8
3
 10
203.00188
 20
224.000060000000019
 30
0.0
  0
VERTEX
  8
3
 10
203.00188
 20
188.000640000000004
 30
0.0
  0
VERTEX
  8
3
 10
148.000720000000001
 20
188.000640000000004
 30
0.0
  0
SEQEND
  0
POLYLINE
  8
1
  6
LINETYPE_1
 66
     1
 10
0.0
 20
0.0
 30
0.0
  0
VERTEX
  8
1
 10
236.004100000000022
 20
223.997520000000009
 30
0.0
  0
VERTEX
  8
1
 10
236.004100000000022
 20
209.997040000000027
 30
0.0
  0
SEQEND
  0
POLYLINE
  8
1
  6
LINETYPE_1
 66
     1
 10
0.0
 20
0.0
 30
0.0
  0
VERTEX
  8
1
 10
236.004100000000022
 20
201.996040000000022
 30
0.0
  0
VERTEX
  8
1
 10
236.004100000000022
 20
187.995560000000012
 30
0.0
  0
SEQEND
  0
CIRCLE
  8
1
  6
LINETYPE_1
999
CadStd_LW=0.6096
 10
235.999020000000002
 20
208.996280000000013
 30
0.0
 40
1.0007600000000001
  0
POLYLINE
  8
1
  6
LINETYPE_1
 66
     1
 10
0.0
 20
0.0
 30
0.0
  0
VERTEX
  8
1
 10
236.352080000000001
 20
208.059020000000004
 30
0.0
  0
VERTEX
  8
1
 10
239.001300000000015
 20
201.998580000000004
 30
0.0
  0
SEQEND
  0
POLYLINE
  8
1
  6
LINETYPE_1
 66
     1
 10
0.0
 20
0.0
 30
0.0
  0
VERTEX
  8
1
 10
246.004080000000016
 20
201.996040000000022
 30
0.0
  0
VERTEX
  8
1
 10
246.004080000000016
 20
187.995560000000012
 30
0.0
  0
SEQEND
  0
CIRCLE
  8
1
  6
LINETYPE_1
999
CadStd_LW=0.6096
 10
245.999000000000024
 20
208.996280000000013
 30
0.0
 40
1.0007600000000001
  0
POLYLINE
  8
1
  6
LINETYPE_1
 66
     1
 10
0.0
 20
0.0
 30
0.0
  0
VERTEX
  8
1
 10
246.352060000000023
 20
208.059020000000004
 30
0.0
  0
VERTEX
  8
1
 10
249.001280000000008
 20
201.998580000000004
 30
0.0
  0
SEQEND
  0
POLYLINE
  8
1
  6
LINETYPE_1
 66
     1
 70
     1
 10
0.0
 20
0.0
 30
0.0
  0
VERTEX
  8
1
 10
222.001080000000002
 20
208.00060000000002
 30
0.0
  0
VERTEX
  8
1
 10
230.002080000000007
 20
208.00060000000002
 30
0.0
  0
VERTEX
  8
1
 10
230.002080000000007
 20
202.999340000000018
 30
0.0
  0
VERTEX
  8
1
 10
222.001080000000002
 20
202.999340000000018
 30
0.0
  0
SEQEND
  0
POLYLINE
  8
1
  6
LINETYPE_1
 66
     1
 10
0.0
 20
0.0
 30
0.0
  0
VERTEX
  8
1
 10
236.001560000000012
 20
218.000580000000014
 30
0.0
  0
VERTEX
  8
1
 10
246.001540000000006
 20
218.000580000000014
 30
0.0
  0
SEQEND
  0
POLYLINE
  8
1
  6
LINETYPE_1
 66
     1
 10
0.0
 20
0.0
 30
0.0
  0
VERTEX
  8
1
 10
226.001580000000018
 20
208.00060000000002
 30
0.0
  0
VERTEX
  8
1
 10
226.001580000000018
 20
224.000060000000019
 30
0.0
  0
SEQEND
  0
POLYLINE
  8
1
  6
LINETYPE_1
 66
     1
 10
0.0
 20
0.0
 30
0.0
  0
VERTEX
  8
1
 10
226.001580000000018
 20
202.999340000000018
 30
0.0
  0
VERTEX
  8
1
 10
226.001580000000018
 20
188.000640000000004
 30
0.0
  0
SEQEND
  0
CIRCLE
  8
1
  6
LINETYPE_1
999
CadStd_LW=0.6096
 10
236.001560000000012
 20
217.998040000000003
 30
0.0
 40
0.4978400000000000
  0
POLYLINE
  8
1
  6
LINETYPE_1
 66
     1
 10
0.0
 20
0.0
 30
0.0
  0
VERTEX
  8
1
 10
246.004080000000016
 20
209.997040000000027
 30
0.0
  0
VERTEX
  8
1
 10
246.004080000000016
 20
218.000580000000014
 30
0.0
  0
SEQEND
  0
POLYLINE
  8
3
  6
LINETYPE_2
 66
     1
 10
0.0
 20
0.0
 30
0.0
  0
VERTEX
  8
3
 10
256.001520000000028
 20
188.000640000000004
 30
0.0
  0
VERTEX
  8
3
 10
256.001520000000028
 20
175.999140000000011
 30
0.0
  0
SEQEND
  0
POLYLINE
  8
3
  6
LINETYPE_2
 66
     1
 10
0.0
 20
0.0
 30
0.0
  0
VERTEX
  8
3
 10
266.001500000000021
 20
175.999140000000011
 30
0.0
  0
VERTEX
  8
3
 10
266.001500000000021
 20
188.000640000000004
 30
0.0
  0
SEQEND
  0
POLYLINE
  8
3
  6
LINETYPE_2
 66
     1
 70
     1
 10
0.0
 20
0.0
 30
0.0
  0
VERTEX
  8
3
 10
259.001260000000002
 20
178.998880000000014
 30
0.0
  0
VERTEX
  8
3
 10
263.00175999999999
 20
178.998880000000014
 30
0.0
  0
VERTEX
  8
3
 10
263.00175999999999
 20
172.999400000000009
 30
0.0
  0
VERTEX
  8
3
 10
259.001260000000002
 20
172.999400000000009
 30
0.0
  0
SEQEND
  0
POLYLINE
  8
3
  6
LINETYPE_2
 66
     1
 10
0.0
 20
0.0
 30
0.0
  0
VERTEX
  8
3
 10
266.001500000000021
 20
175.999140000000011
 30
0.0
  0
VERTEX
  8
3
 10
263.00175999999999
 20
175.999140000000011
 30
0.0
  0
SEQEND
  0
POLYLINE
  8
3
  6
LINETYPE_2
 66
     1
 10
0.0
 20
0.0
 30
0.0
  0
VERTEX
  8
3
 10
259.001260000000002
 20
175.999140000000011
 30
0.0
  0
VERTEX
  8
3
 10
256.001520000000028
 20
175.999140000000011
 30
0.0
  0
SEQEND
  0
POLYLINE
  8
3
  6
LINETYPE_3
 66
     1
 70
     1
 10
0.0
 20
0.0
 30
0.0
  0
VERTEX
  8
3
 10
219.001340000000027
 20
224.000060000000019
 30
0.0
  0
VERTEX
  8
3
 10
274.002499999999998
 20
224.000060000000019
 30
0.0
  0
VERTEX
  8
3
 10
274.002499999999998
 20
188.000640000000004
 30
0.0
  0
VERTEX
  8
3
 10
219.001340000000027
 20
188.000640000000004
 30
0.0
  0
SEQEND
  0
POLYLINE
  8
1
  6
LINETYPE_1
 66
     1
 10
0.0
 20
0.0
 30
0.0
  0
VERTEX
  8
1
 10
179.999639999999999
 20
262.001000000000033
 30
0.0
  0
VERTEX
  8
1
 10
179.999639999999999
 20
259.999480000000005
 30
0.0
  0
SEQEND
  0
POLYLINE
  8
1
  6
LINETYPE_1
 66
     1
 10
0.0
 20
0.0
 30
0.0
  0
VERTEX
  8
1
 10
179.999639999999999
 20
259.999480000000005
 30
0.0
  0
VERTEX
  8
1
 10
182.001159999999999
 20
259.999480000000005
 30
0.0
  0
SEQEND
  0
POLYLINE
  8
1
  6
LINETYPE_1
 66
     1
 10
0.0
 20
0.0
 30
0.0
  0
VERTEX
  8
1
 10
182.001159999999999
 20
262.001000000000033
 30
0.0
  0
VERTEX
  8
1
 10
179.999639999999999
 20
262.001000000000033
 30
0.0
  0
SEQEND
  0
POLYLINE
  8
1
  6
LINETYPE_1
 66
     1
 10
0.0
 20
0.0
 30
0.0
  0
VERTEX
  8
1
 10
201.002900000000011
 20
261.00278000000003
 30
0.0
  0
VERTEX
  8
1
 10
215.003380000000021
 20
261.00278000000003
 30
0.0
  0
SEQEND
  0
CIRCLE
  8
1
  6
LINETYPE_1
999
CadStd_LW=0.6096
 10
194.00266000000002
 20
260.997700000000009
 30
0.0
 40
1.0007600000000001
  0
POLYLINE
  8
1
  6
LINETYPE_1
 66
     1
 10
0.0
 20
0.0
 30
0.0
  0
VERTEX
  8
1
 10
194.939920000000001
 20
261.350760000000037
 30
0.0
  0
VERTEX
  8
1
 10
201.000360000000001
 20
263.999979999999994
 30
0.0
  0
SEQEND
  0
POLYLINE
  8
1
  6
LINETYPE_1
 66
     1
 10
0.0
 20
0.0
 30
0.0
  0
VERTEX
  8
1
 10
223.004380000000026
 20
261.00278000000003
 30
0.0
  0
VERTEX
  8
1
 10
237.004860000000008
 20
261.00278000000003
 30
0.0
  0
SEQEND
  0
CIRCLE
  8
1
  6
LINETYPE_1
999
CadStd_LW=0.6096
 10
216.004140000000007
 20
260.997700000000009
 30
0.0
 40
1.0007600000000001
  0
POLYLINE
  8
1
  6
LINETYPE_1
 66
     1
 10
0.0
 20
0.0
 30
0.0
  0
VERTEX
  8
1
 10
216.941400000000016
 20
261.350760000000037
 30
0.0
  0
VERTEX
  8
1
 10
223.001840000000016
 20
263.999979999999994
 30
0.0
  0
SEQEND
  0
POLYLINE
  8
1
  6
LINETYPE_1
 66
     1
 10
0.0
 20
0.0
 30
0.0
  0
VERTEX
  8
1
 10
236.001560000000012
 20
262.001000000000033
 30
0.0
  0
VERTEX
  8
1
 10
238.000540000000001
 20
262.001000000000033
 30
0.0
  0
SEQEND
  0
POLYLINE
  8
1
  6
LINETYPE_1
 66
     1
 10
0.0
 20
0.0
 30
0.0
  0
VERTEX
  8
1
 10
238.000540000000001
 20
259.999480000000005
 30
0.0
  0
VERTEX
  8
1
 10
236.001560000000012
 20
259.999480000000005
 30
0.0
  0
SEQEND
  0
POLYLINE
  8
1
  6
LINETYPE_1
 66
     1
 10
0.0
 20
0.0
 30
0.0
  0
VERTEX
  8
1
 10
181.000400000000013
 20
261.000240000000019
 30
0.0
  0
VERTEX
  8
1
 10
193.001900000000006
 20
261.000240000000019
 30
0.0
  0
SEQEND
  0
POLYLINE
  8
1
  6
LINETYPE_1
 66
     1
 10
0.0
 20
0.0
 30
0.0
  0
VERTEX
  8
1
 10
238.000540000000001
 20
262.001000000000033
 30
0.0
  0
VERTEX
  8
1
 10
238.000540000000001
 20
259.999480000000005
 30
0.0
  0
SEQEND
  0
CIRCLE
  8
1
  6
LINETYPE_1
999
CadStd_LW=0.6096
 10
155.00096000000002
 20
260.997700000000009
 30
0.0
 40
0.4978400000000000
  0
POLYLINE
  8
1
  6
LINETYPE_8
 66
     1
 10
0.0
 20
0.0
 30
0.0
  0
VERTEX
  8
1
 10
155.00096000000002
 20
224.000060000000019
 30
0.0
  0
VERTEX
  8
1
 10
155.00096000000002
 20
261.000240000000019
 30
0.0
  0
SEQEND
  0
POLYLINE
  8
1
  6
LINETYPE_8
 66
     1
 10
0.0
 20
0.0
 30
0.0
  0
VERTEX
  8
1
 10
180.00218000000001
 20
261.000240000000019
 30
0.0
  0
VERTEX
  8
1
 10
87.0026200000000074
 20
261.000240000000019
 30
0.0
  0
SEQEND
  0
POLYLINE
  8
1
  6
LINETYPE_1
 66
     1
 10
0.0
 20
0.0
 30
0.0
  0
VERTEX
  8
1
 10
238.000540000000001
 20
261.000240000000019
 30
0.0
  0
VERTEX
  8
1
 10
299.001180000000033
 20
261.000240000000019
 30
0.0
  0
SEQEND
  0
POLYLINE
  8
1
  6
LINETYPE_8
 66
     1
 10
0.0
 20
0.0
 30
0.0
  0
VERTEX
  8
1
 10
155.00096000000002
 20
224.000060000000019
 30
0.0
  0
VERTEX
  8
1
 10
158.000700000000023
 20
228.000560000000007
 30
0.0
  0
SEQEND
  0
POLYLINE
  8
1
  6
LINETYPE_8
 66
     1
 10
0.0
 20
0.0
 30
0.0
  0
VERTEX
  8
1
 10
158.000700000000023
 20
228.000560000000007
 30
0.0
  0
VERTEX
  8
1
 10
165.000940000000014
 20
228.000560000000007
 30
0.0
  0
SEQEND
  0
POLYLINE
  8
1
  6
LINETYPE_8
 66
     1
 10
0.0
 20
0.0
 30
0.0
  0
VERTEX
  8
1
 10
165.000940000000014
 20
228.000560000000007
 30
0.0
  0
VERTEX
  8
1
 10
165.000940000000014
 20
224.000060000000019
 30
0.0
  0
SEQEND
  0
POLYLINE
  8
1
  6
LINETYPE_8
 66
     1
 10
0.0
 20
0.0
 30
0.0
  0
VERTEX
  8
1
 10
165.000940000000014
 20
224.000060000000019
 30
0.0
  0
VERTEX
  8
1
 10
168.000680000000017
 20
228.000560000000007
 30
0.0
  0
SEQEND
  0
POLYLINE
  8
1
  6
LINETYPE_8
 66
     1
 10
0.0
 20
0.0
 30
0.0
  0
VERTEX
  8
1
 10
168.000680000000017
 20
228.000560000000007
 30
0.0
  0
VERTEX
  8
1
 10
226.001580000000018
 20
228.000560000000007
 30
0.0
  0
SEQEND
  0
POLYLINE
  8
1
  6
LINETYPE_8
 66
     1
 10
0.0
 20
0.0
 30
0.0
  0
VERTEX
  8
1
 10
226.001580000000018
 20
228.000560000000007
 30
0.0
  0
VERTEX
  8
1
 10
226.001580000000018
 20
224.000060000000019
 30
0.0
  0
SEQEND
  0
POLYLINE
  8
1
  6
LINETYPE_8
 66
     1
 10
0.0
 20
0.0
 30
0.0
  0
VERTEX
  8
1
 10
226.001580000000018
 20
224.000060000000019
 30
0.0
  0
VERTEX
  8
1
 10
229.001320000000021
 20
228.000560000000007
 30
0.0
  0
SEQEND
  0
POLYLINE
  8
1
  6
LINETYPE_8
 66
     1
 10
0.0
 20
0.0
 30
0.0
  0
VERTEX
  8
1
 10
229.001320000000021
 20
228.000560000000007
 30
0.0
  0
VERTEX
  8
1
 10
236.001560000000012
 20
228.000560000000007
 30
0.0
  0
SEQEND
  0
POLYLINE
  8
1
  6
LINETYPE_8
 66
     1
 10
0.0
 20
0.0
 30
0.0
  0
VERTEX
  8
1
 10
236.001560000000012
 20
228.000560000000007
 30
0.0
  0
VERTEX
  8
1
 10
236.001560000000012
 20
224.000060000000019
 30
0.0
  0
SEQEND
  0
POLYLINE
  8
1
  6
LINETYPE_2
 66
     1
 10
0.0
 20
0.0
 30
0.0
  0
VERTEX
  8
1
 10
155.00096000000002
 20
188.000640000000004
 30
0.0
  0
VERTEX
  8
1
 10
155.00096000000002
 20
32.999680000000005
 30
0.0
  0
SEQEND
  0
CIRCLE
  8
1
  6
LINETYPE_1
999
CadStd_LW=0.6096
 10
155.00096000000002
 20
32.9971400000000017
 30
0.0
 40
0.4978400000000000
  0
CIRCLE
  8
1
  6
LINETYPE_1
999
CadStd_LW=0.6096
 10
175.000920000000008
 20
171.998640000000023
 30
0.0
 40
3.6068000000000002
  0
POLYLINE
  8
1
  6
LINETYPE_1
 66
     1
 10
0.0
 20
0.0
 30
0.0
  0
VERTEX
  8
1
 10
172.450760000000002
 20
169.448480000000018
 30
0.0
  0
VERTEX
  8
1
 10
177.551080000000013
 20
174.5488
 30
0.0
  0
SEQEND
  0
POLYLINE
  8
1
  6
LINETYPE_1
 66
     1
 10
0.0
 20
0.0
 30
0.0
  0
VERTEX
  8
1
 10
177.551080000000013
 20
169.448480000000018
 30
0.0
  0
VERTEX
  8
1
 10
172.450760000000002
 20
174.5488
 30
0.0
  0
SEQEND
  0
POLYLINE
  8
1
  6
LINETYPE_1
 66
     1
 10
0.0
 20
0.0
 30
0.0
  0
VERTEX
  8
1
 10
175.000920000000008
 20
175.605440000000016
 30
0.0
  0
VERTEX
  8
1
 10
175.000920000000008
 20
188.003180000000015
 30
0.0
  0
SEQEND
  0
POLYLINE
  8
1
  6
LINETYPE_1
 66
     1
 10
0.0
 20
0.0
 30
0.0
  0
VERTEX
  8
1
 10
165.000940000000014
 20
188.000640000000004
 30
0.0
  0
VERTEX
  8
1
 10
165.000940000000014
 20
65.0011400000000066
 30
0.0
  0
SEQEND
  0
POLYLINE
  8
1
  6
LINETYPE_1
 66
     1
 70
     1
 10
0.0
 20
0.0
 30
0.0
  0
VERTEX
  8
1
 10
161.000439999999998
 20
65.0011400000000066
 30
0.0
  0
VERTEX
  8
1
 10
169.001440000000002
 20
65.0011400000000066
 30
0.0
  0
VERTEX
  8
1
 10
169.001440000000002
 20
59.9998800000000045
 30
0.0
  0
VERTEX
  8
1
 10
161.000439999999998
 20
59.9998800000000045
 30
0.0
  0
SEQEND
  0
POLYLINE
  8
1
  6
LINETYPE_2
 66
     1
 10
0.0
 20
0.0
 30
0.0
  0
VERTEX
  8
1
 10
165.000940000000014
 20
59.9998800000000045
 30
0.0
  0
VERTEX
  8
1
 10
165.000940000000014
 20
32.999680000000005
 30
0.0
  0
SEQEND
  0
CIRCLE
  8
1
  6
LINETYPE_1
999
CadStd_LW=0.6096
 10
165.000940000000014
 20
32.9971400000000017
 30
0.0
 40
0.4978400000000000
  0
POLYLINE
  8
1
  6
LINETYPE_2
 66
     1
 10
0.0
 20
0.0
 30
0.0
  0
VERTEX
  8
1
 10
155.00096000000002
 20
188.000640000000004
 30
0.0
  0
VERTEX
  8
1
 10
158.000700000000023
 20
184.000140000000016
 30
0.0
  0
SEQEND
  0
POLYLINE
  8
1
  6
LINETYPE_2
 66
     1
 10
0.0
 20
0.0
 30
0.0
  0
VERTEX
  8
1
 10
158.000700000000023
 20
184.000140000000016
 30
0.0
  0
VERTEX
  8
1
 10
158.000700000000023
 20
154.000200000000007
 30
0.0
  0
SEQEND
  0
POLYLINE
  8
1
  6
LINETYPE_2
 66
     1
 10
0.0
 20
0.0
 30
0.0
  0
VERTEX
  8
1
 10
158.000700000000023
 20
154.000200000000007
 30
0.0
  0
VERTEX
  8
1
 10
175.000920000000008
 20
154.000200000000007
 30
0.0
  0
SEQEND
  0
POLYLINE
  8
1
  6
LINETYPE_2
 66
     1
 10
0.0
 20
0.0
 30
0.0
  0
VERTEX
  8
1
 10
175.000920000000008
 20
168.000680000000017
 30
0.0
  0
VERTEX
  8
1
 10
175.000920000000008
 20
154.000200000000007
 30
0.0
  0
SEQEND
  0
CIRCLE
  8
1
  6
LINETYPE_1
999
CadStd_LW=0.6096
 10
175.000920000000008
 20
153.997659999999996
 30
0.0
 40
0.4978400000000000
  0
POLYLINE
  8
1
  6
LINETYPE_2
 66
     1
 10
0.0
 20
0.0
 30
0.0
  0
VERTEX
  8
1
 10
176.001680000000022
 20
154.000200000000007
 30
0.0
  0
VERTEX
  8
1
 10
226.001580000000018
 20
154.000200000000007
 30
0.0
  0
SEQEND
  0
POLYLINE
  8
1
  6
LINETYPE_2
 66
     1
 10
0.0
 20
0.0
 30
0.0
  0
VERTEX
  8
1
 10
226.001580000000018
 20
154.000200000000007
 30
0.0
  0
VERTEX
  8
1
 10
226.001580000000018
 20
188.000640000000004
 30
0.0
  0
SEQEND
  0
CIRCLE
  8
7
  6
LINETYPE_2
999
CadStd_LW=0.2286
 10
152.001220000000018
 20
245.00078000000002
 30
0.0
 40
2.0015200000000002
  0
CIRCLE
  8
7
  6
LINETYPE_2
999
CadStd_LW=0.2286
 10
152.001220000000018
 20
138.998960000000011
 30
0.0
 40
2.0015200000000002
  0
CIRCLE
  8
7
  6
LINETYPE_2
999
CadStd_LW=0.2286
 10
162.001200000000011
 20
138.998960000000011
 30
0.0
 40
2.0015200000000002
  0
POLYLINE
  8
1
  6
LINETYPE_1
 66
     1
 10
0.0
 20
0.0
 30
0.0
  0
VERTEX
  8
1
 10
236.001560000000012
 20
188.000640000000004
 30
0.0
  0
VERTEX
  8
1
 10
236.001560000000012
 20
65.0011400000000066
 30
0.0
  0
SEQEND
  0
POLYLINE
  8
1
  6
LINETYPE_1
 66
     1
 70
     1
 10
0.0
 20
0.0
 30
0.0
  0
VERTEX
  8
1
 10
232.001060000000024
 20
65.0011400000000066
 30
0.0
  0
VERTEX
  8
1
 10
240.002060000000029
 20
65.0011400000000066
 30
0.0
  0
VERTEX
  8
1
 10
240.002060000000029
 20
59.9998800000000045
 30
0.0
  0
VERTEX
  8
1
 10
232.001060000000024
 20
59.9998800000000045
 30
0.0
  0
SEQEND
  0
POLYLINE
  8
1
  6
LINETYPE_2
 66
     1
 10
0.0
 20
0.0
 30
0.0
  0
VERTEX
  8
1
 10
236.001560000000012
 20
59.9998800000000045
 30
0.0
  0
VERTEX
  8
1
 10
236.001560000000012
 20
32.999680000000005
 30
0.0
  0
SEQEND
  0
CIRCLE
  8
1
  6
LINETYPE_1
999
CadStd_LW=0.6096
 10
236.001560000000012
 20
32.9971400000000017
 30
0.0
 40
0.4978400000000000
  0
CIRCLE
  8
7
  6
LINETYPE_2
999
CadStd_LW=0.2286
 10
233.001820000000009
 20
138.998960000000011
 30
0.0
 40
2.0015200000000002
  0
TEXT
999
CadStd_TT=1
  8
6
 10
167.002460000000013
 20
198.000620000000026
 30
0.0
 40
1.7500600000000002
  1
C1
 50
0.00000000000
  0
TEXT
999
CadStd_TT=1
  8
6
 10
238.003080000000011
 20
198.000620000000026
 30
0.0
 40
1.7500600000000002
  1
C1
 50
0.00000000000
  0
TEXT
999
CadStd_TT=2
  8
6
 10
169.001440000000002
 20
120.9979800000000125
 30
0.0
 40
3.5001200000000003
  1
C1
 50
0.00000000000
  0
TEXT
999
CadStd_TT=1
  8
6
 10
172.001180000000005
 20
132.999480000000005
 30
0.0
 40
1.7500600000000002
  1
MASTER RELAY PROGRAM:
 50
0.00000000000
  0
TEXT
999
CadStd_TT=2
  8
6
 10
169.001440000000002
 20
92.9970200000000062
 30
0.0
 40
3.5001200000000003
  1
A1
 50
0.00000000000
  0
POLYLINE
  8
6
  6
LINETYPE_2
 66
     1
 10
0.0
 20
0.0
 30
0.0
  0
VERTEX
  8
6
 10
219.001340000000027
 20
99.9998000000000076
 30
0.0
  0
VERTEX
  8
6
 10
218.366340000000008
 20
96.8248000000000104
 30
0.0
  0
SEQEND
  0
POLYLINE
  8
6
  6
LINETYPE_2
 66
     1
 10
0.0
 20
0.0
 30
0.0
  0
VERTEX
  8
6
 10
218.366340000000008
 20
96.8248000000000104
 30
0.0
  0
VERTEX
  8
6
 10
219.636340000000018
 20
96.8248000000000104
 30
0.0
  0
SEQEND
  0
POLYLINE
  8
6
  6
LINETYPE_2
 66
     1
 10
0.0
 20
0.0
 30
0.0
  0
VERTEX
  8
6
 10
219.636340000000018
 20
96.8248000000000104
 30
0.0
  0
VERTEX
  8
6
 10
219.001340000000027
 20
99.9998000000000076
 30
0.0
  0
SEQEND
  0
POLYLINE
  8
6
  6
LINETYPE_2
 66
     1
 10
0.0
 20
0.0
 30
0.0
  0
VERTEX
  8
6
 10
219.001340000000027
 20
99.9998000000000076
 30
0.0
  0
VERTEX
  8
6
 10
219.001340000000027
 20
89.9998199999999997
 30
0.0
  0
SEQEND
  0
POLYLINE
  8
6
  6
LINETYPE_2
 66
     1
 10
0.0
 20
0.0
 30
0.0
  0
VERTEX
  8
6
 10
220.002100000000013
 20
98.9990400000000079
 30
0.0
  0
VERTEX
  8
6
 10
221.000320000000016
 20
99.9998000000000076
 30
0.0
  0
SEQEND
  0
POLYLINE
  8
6
  6
LINETYPE_2
 66
     1
 10
0.0
 20
0.0
 30
0.0
  0
VERTEX
  8
6
 10
223.001840000000016
 20
99.9998000000000076
 30
0.0
  0
VERTEX
  8
6
 10
220.002100000000013
 20
97.0000600000000048
 30
0.0
  0
SEQEND
  0
POLYLINE
  8
6
  6
LINETYPE_2
 66
     1
 10
0.0
 20
0.0
 30
0.0
  0
VERTEX
  8
6
 10
225.000820000000004
 20
99.9998000000000076
 30
0.0
  0
VERTEX
  8
6
 10
220.002100000000013
 20
94.9985400000000055
 30
0.0
  0
SEQEND
  0
POLYLINE
  8
6
  6
LINETYPE_2
 66
     1
 10
0.0
 20
0.0
 30
0.0
  0
VERTEX
  8
6
 10
220.002100000000013
 20
94.9985400000000055
 30
0.0
  0
VERTEX
  8
6
 10
219.001340000000027
 20
93.9977800000000059
 30
0.0
  0
SEQEND
  0
POLYLINE
  8
6
  6
LINETYPE_2
 66
     1
 10
0.0
 20
0.0
 30
0.0
  0
VERTEX
  8
6
 10
223.001840000000016
 20
89.9998199999999997
 30
0.0
  0
VERTEX
  8
6
 10
228.000560000000007
 20
94.9985400000000055
 30
0.0
  0
SEQEND
  0
POLYLINE
  8
6
  6
LINETYPE_2
 66
     1
 10
0.0
 20
0.0
 30
0.0
  0
VERTEX
  8
6
 10
225.000820000000004
 20
89.9998199999999997
 30
0.0
  0
VERTEX
  8
6
 10
228.000560000000007
 20
92.9995600000000024
 30
0.0
  0
SEQEND
  0
POLYLINE
  8
6
  6
LINETYPE_2
 66
     1
 10
0.0
 20
0.0
 30
0.0
  0
VERTEX
  8
6
 10
226.999800000000022
 20
89.9998199999999997
 30
0.0
  0
VERTEX
  8
6
 10
228.000560000000007
 20
90.9980400000000031
 30
0.0
  0
SEQEND
  0
TEXT
999
CadStd_TT=1
  8
6
 10
221.99854000000002
 20
93.9977800000000059
 30
0.0
 40
1.7500600000000002
  1
ON
 50
0.00000000000
  0
POLYLINE
  8
6
  6
LINETYPE_2
 66
     1
 10
0.0
 20
0.0
 30
0.0
  0
VERTEX
  8
6
 10
226.999800000000022
 20
99.9998000000000076
 30
0.0
  0
VERTEX
  8
6
 10
223.502220000000023
 20
96.4996800000000121
 30
0.0
  0
SEQEND
  0
POLYLINE
  8
6
  6
LINETYPE_2
 66
     1
 10
0.0
 20
0.0
 30
0.0
  0
VERTEX
  8
6
 10
221.500700000000023
 20
94.4956200000000024
 30
0.0
  0
VERTEX
  8
6
 10
219.001340000000027
 20
91.9988000000000028
 30
0.0
  0
SEQEND
  0
POLYLINE
  8
6
  6
LINETYPE_2
 66
     1
 10
0.0
 20
0.0
 30
0.0
  0
VERTEX
  8
6
 10
222.504000000000019
 20
93.4999400000000094
 30
0.0
  0
VERTEX
  8
6
 10
219.001340000000027
 20
89.9998199999999997
 30
0.0
  0
SEQEND
  0
POLYLINE
  8
6
  6
LINETYPE_2
 66
     1
 10
0.0
 20
0.0
 30
0.0
  0
VERTEX
  8
6
 10
228.000560000000007
 20
98.9990400000000079
 30
0.0
  0
VERTEX
  8
6
 10
225.501200000000011
 20
96.4996800000000121
 30
0.0
  0
SEQEND
  0
POLYLINE
  8
6
  6
LINETYPE_2
 66
     1
 10
0.0
 20
0.0
 30
0.0
  0
VERTEX
  8
6
 10
228.000560000000007
 20
97.0000600000000048
 30
0.0
  0
VERTEX
  8
6
 10
226.001580000000018
 20
95.0036200000000122
 30
0.0
  0
SEQEND
  0
POLYLINE
  8
6
  6
LINETYPE_2
 66
     1
 10
0.0
 20
0.0
 30
0.0
  0
VERTEX
  8
6
 10
224.497900000000016
 20
93.4999400000000094
 30
0.0
  0
VERTEX
  8
6
 10
221.000320000000016
 20
90.0023600000000101
 30
0.0
  0
SEQEND
  0
POLYLINE
  8
6
  6
LINETYPE_2
 66
     1
 10
0.0
 20
0.0
 30
0.0
  0
VERTEX
  8
6
 10
214.000080000000025
 20
89.9998199999999997
 30
0.0
  0
VERTEX
  8
6
 10
214.635080000000016
 20
93.1748200000000111
 30
0.0
  0
SEQEND
  0
POLYLINE
  8
6
  6
LINETYPE_2
 66
     1
 10
0.0
 20
0.0
 30
0.0
  0
VERTEX
  8
6
 10
214.635080000000016
 20
93.1748200000000111
 30
0.0
  0
VERTEX
  8
6
 10
213.365080000000006
 20
93.1748200000000111
 30
0.0
  0
SEQEND
  0
POLYLINE
  8
6
  6
LINETYPE_2
 66
     1
 10
0.0
 20
0.0
 30
0.0
  0
VERTEX
  8
6
 10
213.365080000000006
 20
93.1748200000000111
 30
0.0
  0
VERTEX
  8
6
 10
214.000080000000025
 20
89.9998199999999997
 30
0.0
  0
SEQEND
  0
POLYLINE
  8
6
  6
LINETYPE_2
 66
     1
 10
0.0
 20
0.0
 30
0.0
  0
VERTEX
  8
6
 10
214.000080000000025
 20
89.9998199999999997
 30
0.0
  0
VERTEX
  8
6
 10
214.000080000000025
 20
99.9998000000000076
 30
0.0
  0
SEQEND
  0
POLYLINE
  8
6
  6
LINETYPE_2
 66
     1
 10
0.0
 20
0.0
 30
0.0
  0
VERTEX
  8
6
 10
228.000560000000007
 20
99.9998000000000076
 30
0.0
  0
VERTEX
  8
6
 10
214.000080000000025
 20
99.9998000000000076
 30
0.0
  0
SEQEND
  0
POLYLINE
  8
6
  6
LINETYPE_2
 66
     1
 10
0.0
 20
0.0
 30
0.0
  0
VERTEX
  8
6
 10
219.001340000000027
 20
89.9998199999999997
 30
0.0
  0
VERTEX
  8
6
 10
203.00188
 20
89.9998199999999997
 30
0.0
  0
SEQEND
  0
POLYLINE
  8
6
  6
LINETYPE_2
 66
     1
 10
0.0
 20
0.0
 30
0.0
  0
VERTEX
  8
6
 10
187.002420000000001
 20
99.9998000000000076
 30
0.0
  0
VERTEX
  8
6
 10
186.36742000000001
 20
96.8248000000000104
 30
0.0
  0
SEQEND
  0
POLYLINE
  8
6
  6
LINETYPE_2
 66
     1
 10
0.0
 20
0.0
 30
0.0
  0
VERTEX
  8
6
 10
186.36742000000001
 20
96.8248000000000104
 30
0.0
  0
VERTEX
  8
6
 10
187.63742000000002
 20
96.8248000000000104
 30
0.0
  0
SEQEND
  0
POLYLINE
  8
6
  6
LINETYPE_2
 66
     1
 10
0.0
 20
0.0
 30
0.0
  0
VERTEX
  8
6
 10
187.63742000000002
 20
96.8248000000000104
 30
0.0
  0
VERTEX
  8
6
 10
187.002420000000001
 20
99.9998000000000076
 30
0.0
  0
SEQEND
  0
POLYLINE
  8
6
  6
LINETYPE_2
 66
     1
 10
0.0
 20
0.0
 30
0.0
  0
VERTEX
  8
6
 10
187.002420000000001
 20
99.9998000000000076
 30
0.0
  0
VERTEX
  8
6
 10
187.002420000000001
 20
89.9998199999999997
 30
0.0
  0
SEQEND
  0
POLYLINE
  8
6
  6
LINETYPE_2
 66
     1
 10
0.0
 20
0.0
 30
0.0
  0
VERTEX
  8
6
 10
192.003680000000003
 20
89.9998199999999997
 30
0.0
  0
VERTEX
  8
6
 10
192.638680000000022
 20
93.1748200000000111
 30
0.0
  0
SEQEND
  0
POLYLINE
  8
6
  6
LINETYPE_2
 66
     1
 10
0.0
 20
0.0
 30
0.0
  0
VERTEX
  8
6
 10
192.638680000000022
 20
93.1748200000000111
 30
0.0
  0
VERTEX
  8
6
 10
191.368680000000012
 20
93.1748200000000111
 30
0.0
  0
SEQEND
  0
POLYLINE
  8
6
  6
LINETYPE_2
 66
     1
 10
0.0
 20
0.0
 30
0.0
  0
VERTEX
  8
6
 10
191.368680000000012
 20
93.1748200000000111
 30
0.0
  0
VERTEX
  8
6
 10
192.003680000000003
 20
89.9998199999999997
 30
0.0
  0
SEQEND
  0
POLYLINE
  8
6
  6
LINETYPE_2
 66
     1
 10
0.0
 20
0.0
 30
0.0
  0
VERTEX
  8
6
 10
192.003680000000003
 20
89.9998199999999997
 30
0.0
  0
VERTEX
  8
6
 10
192.003680000000003
 20
99.9998000000000076
 30
0.0
  0
SEQEND
  0
POLYLINE
  8
6
  6
LINETYPE_2
 66
     1
 10
0.0
 20
0.0
 30
0.0
  0
VERTEX
  8
6
 10
178.003200000000021
 20
99.9998000000000076
 30
0.0
  0
VERTEX
  8
6
 10
192.003680000000003
 20
99.9998000000000076
 30
0.0
  0
SEQEND
  0
POLYLINE
  8
6
  6
LINETYPE_2
 66
     1
 10
0.0
 20
0.0
 30
0.0
  0
VERTEX
  8
6
 10
187.002420000000001
 20
89.9998199999999997
 30
0.0
  0
VERTEX
  8
6
 10
203.00188
 20
89.9998199999999997
 30
0.0
  0
SEQEND
  0
POLYLINE
  8
6
  6
LINETYPE_2
 66
     1
 10
0.0
 20
0.0
 30
0.0
  0
VERTEX
  8
6
 10
184.002679999999998
 20
99.9998000000000076
 30
0.0
  0
VERTEX
  8
6
 10
179.003960000000006
 20
94.9985400000000055
 30
0.0
  0
SEQEND
  0
POLYLINE
  8
6
  6
LINETYPE_2
 66
     1
 10
0.0
 20
0.0
 30
0.0
  0
VERTEX
  8
6
 10
179.003960000000006
 20
94.9985400000000055
 30
0.0
  0
VERTEX
  8
6
 10
178.003200000000021
 20
93.9977800000000059
 30
0.0
  0
SEQEND
  0
POLYLINE
  8
6
  6
LINETYPE_2
 66
     1
 10
0.0
 20
0.0
 30
0.0
  0
VERTEX
  8
6
 10
182.003700000000009
 20
89.9998199999999997
 30
0.0
  0
VERTEX
  8
6
 10
187.002420000000001
 20
94.9985400000000055
 30
0.0
  0
SEQEND
  0
POLYLINE
  8
6
  6
LINETYPE_2
 66
     1
 10
0.0
 20
0.0
 30
0.0
  0
VERTEX
  8
6
 10
184.002679999999998
 20
89.9998199999999997
 30
0.0
  0
VERTEX
  8
6
 10
187.002420000000001
 20
92.9995600000000024
 30
0.0
  0
SEQEND
  0
POLYLINE
  8
6
  6
LINETYPE_2
 66
     1
 10
0.0
 20
0.0
 30
0.0
  0
VERTEX
  8
6
 10
186.001660000000015
 20
89.9998199999999997
 30
0.0
  0
VERTEX
  8
6
 10
187.002420000000001
 20
90.9980400000000031
 30
0.0
  0
SEQEND
  0
TEXT
999
CadStd_TT=1
  8
6
 10
181.000400000000013
 20
93.9977800000000059
 30
0.0
 40
1.7500600000000002
  1
ON
 50
0.00000000000
  0
POLYLINE
  8
6
  6
LINETYPE_2
 66
     1
 10
0.0
 20
0.0
 30
0.0
  0
VERTEX
  8
6
 10
186.001660000000015
 20
99.9998000000000076
 30
0.0
  0
VERTEX
  8
6
 10
182.504080000000016
 20
96.4996800000000121
 30
0.0
  0
SEQEND
  0
POLYLINE
  8
6
  6
LINETYPE_2
 66
     1
 10
0.0
 20
0.0
 30
0.0
  0
VERTEX
  8
6
 10
180.502560000000017
 20
94.4956200000000024
 30
0.0
  0
VERTEX
  8
6
 10
178.003200000000021
 20
91.9988000000000028
 30
0.0
  0
SEQEND
  0
POLYLINE
  8
6
  6
LINETYPE_2
 66
     1
 10
0.0
 20
0.0
 30
0.0
  0
VERTEX
  8
6
 10
181.505860000000013
 20
93.4999400000000094
 30
0.0
  0
VERTEX
  8
6
 10
178.003200000000021
 20
89.9998199999999997
 30
0.0
  0
SEQEND
  0
POLYLINE
  8
6
  6
LINETYPE_2
 66
     1
 10
0.0
 20
0.0
 30
0.0
  0
VERTEX
  8
6
 10
183.499760000000009
 20
93.4999400000000094
 30
0.0
  0
VERTEX
  8
6
 10
180.00218000000001
 20
90.0023600000000101
 30
0.0
  0
SEQEND
  0
POLYLINE
  8
6
  6
LINETYPE_2
 66
     1
 10
0.0
 20
0.0
 30
0.0
  0
VERTEX
  8
6
 10
178.000660000000011
 20
98.0008200000000045
 30
0.0
  0
VERTEX
  8
6
 10
180.00218000000001
 20
99.9998000000000076
 30
0.0
  0
SEQEND
  0
POLYLINE
  8
6
  6
LINETYPE_2
 66
     1
 10
0.0
 20
0.0
 30
0.0
  0
VERTEX
  8
6
 10
182.003700000000009
 20
99.9998000000000076
 30
0.0
  0
VERTEX
  8
6
 10
178.000660000000011
 20
95.9993000000000052
 30
0.0
  0
SEQEND
  0
POLYLINE
  8
6
  6
LINETYPE_2
 66
     1
 10
0.0
 20
0.0
 30
0.0
  0
VERTEX
  8
6
 10
186.001660000000015
 20
98.0008200000000045
 30
0.0
  0
VERTEX
  8
6
 10
184.503060000000005
 20
96.4996800000000121
 30
0.0
  0
SEQEND
  0
POLYLINE
  8
6
  6
LINETYPE_2
 66
     1
 10
0.0
 20
0.0
 30
0.0
  0
VERTEX
  8
6
 10
186.001660000000015
 20
95.9993000000000052
 30
0.0
  0
VERTEX
  8
6
 10
185.003440000000012
 20
95.0036200000000122
 30
0.0
  0
SEQEND
  0
TEXT
999
CadStd_TT=1
  8
6
 10
200.002140000000026
 20
93.9977800000000059
 30
0.0
 40
1.7500600000000002
  1
OFF
 50
0.00000000000
  0
POLYLINE
  8
6
  6
LINETYPE_8
 66
     1
 10
0.0
 20
0.0
 30
0.0
  0
VERTEX
  8
6
 10
203.00188
 20
96.4996800000000121
 30
0.0
  0
VERTEX
  8
6
 10
203.00188
 20
101.0005600000000072
 30
0.0
  0
SEQEND
  0
TEXT
999
CadStd_TT=1
  8
6
 10
214.000080000000025
 20
101.0005600000000072
 30
0.0
 40
1.7500600000000002
  1
0.2%%D
 50
0.00000000000
  0
TEXT
999
CadStd_TT=1
  8
6
 10
186.999880000000019
 20
101.0005600000000072
 30
0.0
 40
1.7500600000000002
  1
0.2%%D
 50
0.00000000000
  0
TEXT
999
CadStd_TT=1
  8
6
 10
184.005220000000008
 20
87.0000800000000112
 30
0.0
 40
1.7500600000000002
  1
-2.0%%D
 50
0.00000000000
  0
TEXT
999
CadStd_TT=1
  8
6
 10
216.004140000000007
 20
87.0000800000000112
 30
0.0
 40
1.7500600000000002
  1
+2.0%%D
 50
0.00000000000
  0
POLYLINE
  8
6
  6
LINETYPE_8
 66
     1
 10
0.0
 20
0.0
 30
0.0
  0
VERTEX
  8
6
 10
203.00188
 20
87.0000800000000112
 30
0.0
  0
VERTEX
  8
6
 10
203.00188
 20
93.4999400000000094
 30
0.0
  0
SEQEND
  0
TEXT
999
CadStd_TT=1
  8
6
 10
199.001380000000012
 20
84.0003400000000084
 30
0.0
 40
1.7500600000000002
  1
14.2%%DC
 50
0.00000000000
  0
POLYLINE
  8
6
  6
LINETYPE_2
 66
     1
 10
0.0
 20
0.0
 30
0.0
  0
VERTEX
  8
6
 10
209.001360000000005
 20
128.000760000000014
 30
0.0
  0
VERTEX
  8
6
 10
208.366360000000014
 20
124.8257600000000025
 30
0.0
  0
SEQEND
  0
POLYLINE
  8
6
  6
LINETYPE_2
 66
     1
 10
0.0
 20
0.0
 30
0.0
  0
VERTEX
  8
6
 10
208.366360000000014
 20
124.8257600000000025
 30
0.0
  0
VERTEX
  8
6
 10
209.636360000000025
 20
124.8257600000000025
 30
0.0
  0
SEQEND
  0
POLYLINE
  8
6
  6
LINETYPE_2
 66
     1
 10
0.0
 20
0.0
 30
0.0
  0
VERTEX
  8
6
 10
209.636360000000025
 20
124.8257600000000025
 30
0.0
  0
VERTEX
  8
6
 10
209.001360000000005
 20
128.000760000000014
 30
0.0
  0
SEQEND
  0
POLYLINE
  8
6
  6
LINETYPE_2
 66
     1
 10
0.0
 20
0.0
 30
0.0
  0
VERTEX
  8
6
 10
209.001360000000005
 20
128.000760000000014
 30
0.0
  0
VERTEX
  8
6
 10
209.001360000000005
 20
118.000780000000006
 30
0.0
  0
SEQEND
  0
POLYLINE
  8
6
  6
LINETYPE_2
 66
     1
 10
0.0
 20
0.0
 30
0.0
  0
VERTEX
  8
6
 10
196.999860000000012
 20
118.000780000000006
 30
0.0
  0
VERTEX
  8
6
 10
197.634860000000003
 20
121.1757800000000032
 30
0.0
  0
SEQEND
  0
POLYLINE
  8
6
  6
LINETYPE_2
 66
     1
 10
0.0
 20
0.0
 30
0.0
  0
VERTEX
  8
6
 10
197.634860000000003
 20
121.1757800000000032
 30
0.0
  0
VERTEX
  8
6
 10
196.364860000000022
 20
121.1757800000000032
 30
0.0
  0
SEQEND
  0
POLYLINE
  8
6
  6
LINETYPE_2
 66
     1
 10
0.0
 20
0.0
 30
0.0
  0
VERTEX
  8
6
 10
196.364860000000022
 20
121.1757800000000032
 30
0.0
  0
VERTEX
  8
6
 10
196.999860000000012
 20
118.000780000000006
 30
0.0
  0
SEQEND
  0
POLYLINE
  8
6
  6
LINETYPE_2
 66
     1
 10
0.0
 20
0.0
 30
0.0
  0
VERTEX
  8
6
 10
196.999860000000012
 20
118.000780000000006
 30
0.0
  0
VERTEX
  8
6
 10
196.999860000000012
 20
128.000760000000014
 30
0.0
  0
SEQEND
  0
POLYLINE
  8
6
  6
LINETYPE_2
 66
     1
 10
0.0
 20
0.0
 30
0.0
  0
VERTEX
  8
6
 10
210.002120000000019
 20
127.0000000000000142
 30
0.0
  0
VERTEX
  8
6
 10
211.000340000000023
 20
128.000760000000014
 30
0.0
  0
SEQEND
  0
POLYLINE
  8
6
  6
LINETYPE_2
 66
     1
 10
0.0
 20
0.0
 30
0.0
  0
VERTEX
  8
6
 10
213.001860000000022
 20
128.000760000000014
 30
0.0
  0
VERTEX
  8
6
 10
210.002120000000019
 20
125.0010200000000111
 30
0.0
  0
SEQEND
  0
POLYLINE
  8
6
  6
LINETYPE_2
 66
     1
 10
0.0
 20
0.0
 30
0.0
  0
VERTEX
  8
6
 10
215.000840000000011
 20
128.000760000000014
 30
0.0
  0
VERTEX
  8
6
 10
210.002120000000019
 20
122.9995000000000118
 30
0.0
  0
SEQEND
  0
POLYLINE
  8
6
  6
LINETYPE_2
 66
     1
 10
0.0
 20
0.0
 30
0.0
  0
VERTEX
  8
6
 10
210.002120000000019
 20
122.9995000000000118
 30
0.0
  0
VERTEX
  8
6
 10
209.001360000000005
 20
121.9987400000000122
 30
0.0
  0
SEQEND
  0
POLYLINE
  8
6
  6
LINETYPE_2
 66
     1
 10
0.0
 20
0.0
 30
0.0
  0
VERTEX
  8
6
 10
213.001860000000022
 20
118.000780000000006
 30
0.0
  0
VERTEX
  8
6
 10
218.000580000000014
 20
122.9995000000000118
 30
0.0
  0
SEQEND
  0
POLYLINE
  8
6
  6
LINETYPE_2
 66
     1
 10
0.0
 20
0.0
 30
0.0
  0
VERTEX
  8
6
 10
215.000840000000011
 20
118.000780000000006
 30
0.0
  0
VERTEX
  8
6
 10
218.000580000000014
 20
121.0005200000000087
 30
0.0
  0
SEQEND
  0
POLYLINE
  8
6
  6
LINETYPE_2
 66
     1
 10
0.0
 20
0.0
 30
0.0
  0
VERTEX
  8
6
 10
216.99982
 20
118.000780000000006
 30
0.0
  0
VERTEX
  8
6
 10
218.000580000000014
 20
118.9990000000000094
 30
0.0
  0
SEQEND
  0
TEXT
999
CadStd_TT=1
  8
6
 10
211.998560000000026
 20
121.9987400000000122
 30
0.0
 40
1.7500600000000002
  1
ON
 50
0.00000000000
  0
POLYLINE
  8
6
  6
LINETYPE_2
 66
     1
 10
0.0
 20
0.0
 30
0.0
  0
VERTEX
  8
6
 10
216.99982
 20
128.000760000000014
 30
0.0
  0
VERTEX
  8
6
 10
213.50224
 20
124.5006400000000042
 30
0.0
  0
SEQEND
  0
POLYLINE
  8
6
  6
LINETYPE_2
 66
     1
 10
0.0
 20
0.0
 30
0.0
  0
VERTEX
  8
6
 10
211.500720000000001
 20
122.4965800000000087
 30
0.0
  0
VERTEX
  8
6
 10
209.001360000000005
 20
119.9997600000000091
 30
0.0
  0
SEQEND
  0
POLYLINE
  8
6
  6
LINETYPE_2
 66
     1
 10
0.0
 20
0.0
 30
0.0
  0
VERTEX
  8
6
 10
212.504020000000025
 20
121.5009000000000014
 30
0.0
  0
VERTEX
  8
6
 10
209.001360000000005
 20
118.000780000000006
 30
0.0
  0
SEQEND
  0
POLYLINE
  8
6
  6
LINETYPE_2
 66
     1
 10
0.0
 20
0.0
 30
0.0
  0
VERTEX
  8
6
 10
218.000580000000014
 20
127.0000000000000142
 30
0.0
  0
VERTEX
  8
6
 10
215.501220000000018
 20
124.5006400000000042
 30
0.0
  0
SEQEND
  0
POLYLINE
  8
6
  6
LINETYPE_2
 66
     1
 10
0.0
 20
0.0
 30
0.0
  0
VERTEX
  8
6
 10
218.000580000000014
 20
125.0010200000000111
 30
0.0
  0
VERTEX
  8
6
 10
216.001600000000025
 20
123.0045800000000042
 30
0.0
  0
SEQEND
  0
POLYLINE
  8
6
  6
LINETYPE_2
 66
     1
 10
0.0
 20
0.0
 30
0.0
  0
VERTEX
  8
6
 10
214.497920000000022
 20
121.5009000000000014
 30
0.0
  0
VERTEX
  8
6
 10
211.000340000000023
 20
118.0033200000000022
 30
0.0
  0
SEQEND
  0
TEXT
999
CadStd_TT=1
  8
6
 10
189.001400000000018
 20
121.9987400000000122
 30
0.0
 40
1.7500600000000002
  1
OFF
 50
0.00000000000
  0
TEXT
999
CadStd_TT=1
  8
6
 10
206.999840000000006
 20
115.0010400000000033
 30
0.0
 40
1.7500600000000002
  1
+0.5%%D
 50
0.00000000000
  0
TEXT
999
CadStd_TT=1
  8
6
 10
192.003680000000003
 20
115.0010400000000033
 30
0.0
 40
1.7500600000000002
  1
-0.5%%D
 50
0.00000000000
  0
POLYLINE
  8
6
  6
LINETYPE_8
 66
     1
 10
0.0
 20
0.0
 30
0.0
  0
VERTEX
  8
6
 10
203.00188
 20
128.998980000000017
 30
0.0
  0
VERTEX
  8
6
 10
203.00188
 20
114.0002800000000036
 30
0.0
  0
SEQEND
  0
TEXT
999
CadStd_TT=1
  8
6
 10
199.001380000000012
 20
111.9987600000000043
 30
0.0
 40
1.7500600000000002
  1
14.2%%DC
 50
0.00000000000
  0
POLYLINE
  8
6
  6
LINETYPE_2
 66
     1
 10
0.0
 20
0.0
 30
0.0
  0
VERTEX
  8
6
 10
178.000660000000011
 20
118.000780000000006
 30
0.0
  0
VERTEX
  8
6
 10
209.001360000000005
 20
118.000780000000006
 30
0.0
  0
SEQEND
  0
POLYLINE
  8
6
  6
LINETYPE_2
 66
     1
 10
0.0
 20
0.0
 30
0.0
  0
VERTEX
  8
6
 10
196.999860000000012
 20
128.000760000000014
 30
0.0
  0
VERTEX
  8
6
 10
228.000560000000007
 20
128.000760000000014
 30
0.0
  0
SEQEND
  0
POLYLINE
  8
6
  6
LINETYPE_2
 66
     1
 10
0.0
 20
0.0
 30
0.0
  0
VERTEX
  8
6
 10
218.000580000000014
 20
127.0000000000000142
 30
0.0
  0
VERTEX
  8
6
 10
219.001340000000027
 20
128.000760000000014
 30
0.0
  0
SEQEND
  0
POLYLINE
  8
6
  6
LINETYPE_2
 66
     1
 10
0.0
 20
0.0
 30
0.0
  0
VERTEX
  8
6
 10
218.000580000000014
 20
125.0010200000000111
 30
0.0
  0
VERTEX
  8
6
 10
221.002860000000027
 20
128.000760000000014
 30
0.0
  0
SEQEND
  0
POLYLINE
  8
6
  6
LINETYPE_2
 66
     1
 10
0.0
 20
0.0
 30
0.0
  0
VERTEX
  8
6
 10
218.000580000000014
 20
122.9995000000000118
 30
0.0
  0
VERTEX
  8
6
 10
223.001840000000016
 20
128.000760000000014
 30
0.0
  0
SEQEND
  0
POLYLINE
  8
6
  6
LINETYPE_2
 66
     1
 10
0.0
 20
0.0
 30
0.0
  0
VERTEX
  8
6
 10
218.000580000000014
 20
121.0005200000000087
 30
0.0
  0
VERTEX
  8
6
 10
225.000820000000004
 20
128.000760000000014
 30
0.0
  0
SEQEND
  0
POLYLINE
  8
6
  6
LINETYPE_2
 66
     1
 10
0.0
 20
0.0
 30
0.0
  0
VERTEX
  8
6
 10
218.000580000000014
 20
118.9990000000000094
 30
0.0
  0
VERTEX
  8
6
 10
227.002340000000004
 20
128.000760000000014
 30
0.0
  0
SEQEND
  0
POLYLINE
  8
6
  6
LINETYPE_2
 66
     1
 10
0.0
 20
0.0
 30
0.0
  0
VERTEX
  8
6
 10
219.001340000000027
 20
118.000780000000006
 30
0.0
  0
VERTEX
  8
6
 10
228.000560000000007
 20
127.0000000000000142
 30
0.0
  0
SEQEND
  0
POLYLINE
  8
6
  6
LINETYPE_2
 66
     1
 10
0.0
 20
0.0
 30
0.0
  0
VERTEX
  8
6
 10
221.002860000000027
 20
118.000780000000006
 30
0.0
  0
VERTEX
  8
6
 10
228.000560000000007
 20
125.0010200000000111
 30
0.0
  0
SEQEND
  0
POLYLINE
  8
6
  6
LINETYPE_2
 66
     1
 10
0.0
 20
0.0
 30
0.0
  0
VERTEX
  8
6
 10
223.001840000000016
 20
118.000780000000006
 30
0.0
  0
VERTEX
  8
6
 10
228.000560000000007
 20
122.9995000000000118
 30
0.0
  0
SEQEND
  0
POLYLINE
  8
6
  6
LINETYPE_2
 66
     1
 10
0.0
 20
0.0
 30
0.0
  0
VERTEX
  8
6
 10
225.000820000000004
 20
118.000780000000006
 30
0.0
  0
VERTEX
  8
6
 10
228.000560000000007
 20
121.0005200000000087
 30
0.0
  0
SEQEND
  0
POLYLINE
  8
6
  6
LINETYPE_2
 66
     1
 10
0.0
 20
0.0
 30
0.0
  0
VERTEX
  8
6
 10
227.002340000000004
 20
118.000780000000006
 30
0.0
  0
VERTEX
  8
6
 10
228.000560000000007
 20
118.9990000000000094
 30
0.0
  0
SEQEND
  0
TEXT
999
CadStd_TT=2
  8
6
 10
240.002060000000029
 20
120.9979800000000125
 30
0.0
 40
3.5001200000000003
  1
C1
 50
0.00000000000
  0
POLYLINE
  8
6
  6
LINETYPE_2
 66
     1
 10
0.0
 20
0.0
 30
0.0
  0
VERTEX
  8
6
 10
280.001980000000003
 20
128.000760000000014
 30
0.0
  0
VERTEX
  8
6
 10
279.366980000000012
 20
124.8257600000000025
 30
0.0
  0
SEQEND
  0
POLYLINE
  8
6
  6
LINETYPE_2
 66
     1
 10
0.0
 20
0.0
 30
0.0
  0
VERTEX
  8
6
 10
279.366980000000012
 20
124.8257600000000025
 30
0.0
  0
VERTEX
  8
6
 10
280.636979999999994
 20
124.8257600000000025
 30
0.0
  0
SEQEND
  0
POLYLINE
  8
6
  6
LINETYPE_2
 66
     1
 10
0.0
 20
0.0
 30
0.0
  0
VERTEX
  8
6
 10
280.636979999999994
 20
124.8257600000000025
 30
0.0
  0
VERTEX
  8
6
 10
280.001980000000003
 20
128.000760000000014
 30
0.0
  0
SEQEND
  0
POLYLINE
  8
6
  6
LINETYPE_2
 66
     1
 10
0.0
 20
0.0
 30
0.0
  0
VERTEX
  8
6
 10
280.001980000000003
 20
128.000760000000014
 30
0.0
  0
VERTEX
  8
6
 10
280.001980000000003
 20
118.000780000000006
 30
0.0
  0
SEQEND
  0
POLYLINE
  8
6
  6
LINETYPE_2
 66
     1
 10
0.0
 20
0.0
 30
0.0
  0
VERTEX
  8
6
 10
268.000480000000039
 20
118.000780000000006
 30
0.0
  0
VERTEX
  8
6
 10
268.63548000000003
 20
121.1757800000000032
 30
0.0
  0
SEQEND
  0
POLYLINE
  8
6
  6
LINETYPE_2
 66
     1
 10
0.0
 20
0.0
 30
0.0
  0
VERTEX
  8
6
 10
268.63548000000003
 20
121.1757800000000032
 30
0.0
  0
VERTEX
  8
6
 10
267.365479999999991
 20
121.1757800000000032
 30
0.0
  0
SEQEND
  0
POLYLINE
  8
6
  6
LINETYPE_2
 66
     1
 10
0.0
 20
0.0
 30
0.0
  0
VERTEX
  8
6
 10
267.365479999999991
 20
121.1757800000000032
 30
0.0
  0
VERTEX
  8
6
 10
268.000480000000039
 20
118.000780000000006
 30
0.0
  0
SEQEND
  0
POLYLINE
  8
6
  6
LINETYPE_2
 66
     1
 10
0.0
 20
0.0
 30
0.0
  0
VERTEX
  8
6
 10
268.000480000000039
 20
118.000780000000006
 30
0.0
  0
VERTEX
  8
6
 10
268.000480000000039
 20
128.000760000000014
 30
0.0
  0
SEQEND
  0
POLYLINE
  8
6
  6
LINETYPE_2
 66
     1
 10
0.0
 20
0.0
 30
0.0
  0
VERTEX
  8
6
 10
281.002740000000017
 20
127.0000000000000142
 30
0.0
  0
VERTEX
  8
6
 10
282.000960000000021
 20
128.000760000000014
 30
0.0
  0
SEQEND
  0
POLYLINE
  8
6
  6
LINETYPE_2
 66
     1
 10
0.0
 20
0.0
 30
0.0
  0
VERTEX
  8
6
 10
284.002479999999991
 20
128.000760000000014
 30
0.0
  0
VERTEX
  8
6
 10
281.002740000000017
 20
125.0010200000000111
 30
0.0
  0
SEQEND
  0
POLYLINE
  8
6
  6
LINETYPE_2
 66
     1
 10
0.0
 20
0.0
 30
0.0
  0
VERTEX
  8
6
 10
286.001460000000009
 20
128.000760000000014
 30
0.0
  0
VERTEX
  8
6
 10
281.002740000000017
 20
122.9995000000000118
 30
0.0
  0
SEQEND
  0
POLYLINE
  8
6
  6
LINETYPE_2
 66
     1
 10
0.0
 20
0.0
 30
0.0
  0
VERTEX
  8
6
 10
281.002740000000017
 20
122.9995000000000118
 30
0.0
  0
VERTEX
  8
6
 10
280.001980000000003
 20
121.9987400000000122
 30
0.0
  0
SEQEND
  0
POLYLINE
  8
6
  6
LINETYPE_2
 66
     1
 10
0.0
 20
0.0
 30
0.0
  0
VERTEX
  8
6
 10
284.002479999999991
 20
118.000780000000006
 30
0.0
  0
VERTEX
  8
6
 10
289.00120000000004
 20
122.9995000000000118
 30
0.0
  0
SEQEND
  0
POLYLINE
  8
6
  6
LINETYPE_2
 66
     1
 10
0.0
 20
0.0
 30
0.0
  0
VERTEX
  8
6
 10
286.001460000000009
 20
118.000780000000006
 30
0.0
  0
VERTEX
  8
6
 10
289.00120000000004
 20
121.0005200000000087
 30
0.0
  0
SEQEND
  0
POLYLINE
  8
6
  6
LINETYPE_2
 66
     1
 10
0.0
 20
0.0
 30
0.0
  0
VERTEX
  8
6
 10
288.000440000000026
 20
118.000780000000006
 30
0.0
  0
VERTEX
  8
6
 10
289.00120000000004
 20
118.9990000000000094
 30
0.0
  0
SEQEND
  0
TEXT
999
CadStd_TT=1
  8
6
 10
282.999180000000024
 20
121.9987400000000122
 30
0.0
 40
1.7500600000000002
  1
ON
 50
0.00000000000
  0
POLYLINE
  8
6
  6
LINETYPE_2
 66
     1
 10
0.0
 20
0.0
 30
0.0
  0
VERTEX
  8
6
 10
288.000440000000026
 20
128.000760000000014
 30
0.0
  0
VERTEX
  8
6
 10
284.502859999999998
 20
124.5006400000000042
 30
0.0
  0
SEQEND
  0
POLYLINE
  8
6
  6
LINETYPE_2
 66
     1
 10
0.0
 20
0.0
 30
0.0
  0
VERTEX
  8
6
 10
282.501340000000027
 20
122.4965800000000087
 30
0.0
  0
VERTEX
  8
6
 10
280.001980000000003
 20
119.9997600000000091
 30
0.0
  0
SEQEND
  0
POLYLINE
  8
6
  6
LINETYPE_2
 66
     1
 10
0.0
 20
0.0
 30
0.0
  0
VERTEX
  8
6
 10
283.504639999999995
 20
121.5009000000000014
 30
0.0
  0
VERTEX
  8
6
 10
280.001980000000003
 20
118.000780000000006
 30
0.0
  0
SEQEND
  0
POLYLINE
  8
6
  6
LINETYPE_2
 66
     1
 10
0.0
 20
0.0
 30
0.0
  0
VERTEX
  8
6
 10
289.00120000000004
 20
127.0000000000000142
 30
0.0
  0
VERTEX
  8
6
 10
286.501840000000016
 20
124.5006400000000042
 30
0.0
  0
SEQEND
  0
POLYLINE
  8
6
  6
LINETYPE_2
 66
     1
 10
0.0
 20
0.0
 30
0.0
  0
VERTEX
  8
6
 10
289.00120000000004
 20
125.0010200000000111
 30
0.0
  0
VERTEX
  8
6
 10
287.002220000000023
 20
123.0045800000000042
 30
0.0
  0
SEQEND
  0
POLYLINE
  8
6
  6
LINETYPE_2
 66
     1
 10
0.0
 20
0.0
 30
0.0
  0
VERTEX
  8
6
 10
285.498539999999991
 20
121.5009000000000014
 30
0.0
  0
VERTEX
  8
6
 10
282.000960000000021
 20
118.0033200000000022
 30
0.0
  0
SEQEND
  0
TEXT
999
CadStd_TT=1
  8
6
 10
260.002020000000016
 20
121.9987400000000122
 30
0.0
 40
1.7500600000000002
  1
OFF
 50
0.00000000000
  0
POLYLINE
  8
6
  6
LINETYPE_8
 66
     1
 10
0.0
 20
0.0
 30
0.0
  0
VERTEX
  8
6
 10
274.002499999999998
 20
128.998980000000017
 30
0.0
  0
VERTEX
  8
6
 10
274.002499999999998
 20
114.0002800000000036
 30
0.0
  0
SEQEND
  0
POLYLINE
  8
6
  6
LINETYPE_2
 66
     1
 10
0.0
 20
0.0
 30
0.0
  0
VERTEX
  8
6
 10
249.001280000000008
 20
118.000780000000006
 30
0.0
  0
VERTEX
  8
6
 10
280.001980000000003
 20
118.000780000000006
 30
0.0
  0
SEQEND
  0
POLYLINE
  8
6
  6
LINETYPE_2
 66
     1
 10
0.0
 20
0.0
 30
0.0
  0
VERTEX
  8
6
 10
268.000480000000039
 20
128.000760000000014
 30
0.0
  0
VERTEX
  8
6
 10
299.001180000000033
 20
128.000760000000014
 30
0.0
  0
SEQEND
  0
POLYLINE
  8
6
  6
LINETYPE_2
 66
     1
 10
0.0
 20
0.0
 30
0.0
  0
VERTEX
  8
6
 10
289.00120000000004
 20
127.0000000000000142
 30
0.0
  0
VERTEX
  8
6
 10
290.001959999999997
 20
128.000760000000014
 30
0.0
  0
SEQEND
  0
POLYLINE
  8
6
  6
LINETYPE_2
 66
     1
 10
0.0
 20
0.0
 30
0.0
  0
VERTEX
  8
6
 10
289.00120000000004
 20
125.0010200000000111
 30
0.0
  0
VERTEX
  8
6
 10
292.003480000000025
 20
128.000760000000014
 30
0.0
  0
SEQEND
  0
POLYLINE
  8
6
  6
LINETYPE_2
 66
     1
 10
0.0
 20
0.0
 30
0.0
  0
VERTEX
  8
6
 10
289.00120000000004
 20
122.9995000000000118
 30
0.0
  0
VERTEX
  8
6
 10
294.002460000000042
 20
128.000760000000014
 30
0.0
  0
SEQEND
  0
POLYLINE
  8
6
  6
LINETYPE_2
 66
     1
 10
0.0
 20
0.0
 30
0.0
  0
VERTEX
  8
6
 10
289.00120000000004
 20
121.0005200000000087
 30
0.0
  0
VERTEX
  8
6
 10
296.001440000000002
 20
128.000760000000014
 30
0.0
  0
SEQEND
  0
POLYLINE
  8
6
  6
LINETYPE_2
 66
     1
 10
0.0
 20
0.0
 30
0.0
  0
VERTEX
  8
6
 10
289.00120000000004
 20
118.9990000000000094
 30
0.0
  0
VERTEX
  8
6
 10
298.00296000000003
 20
128.000760000000014
 30
0.0
  0
SEQEND
  0
POLYLINE
  8
6
  6
LINETYPE_2
 66
     1
 10
0.0
 20
0.0
 30
0.0
  0
VERTEX
  8
6
 10
290.001959999999997
 20
118.000780000000006
 30
0.0
  0
VERTEX
  8
6
 10
299.001180000000033
 20
127.0000000000000142
 30
0.0
  0
SEQEND
  0
POLYLINE
  8
6
  6
LINETYPE_2
 66
     1
 10
0.0
 20
0.0
 30
0.0
  0
VERTEX
  8
6
 10
292.003480000000025
 20
118.000780000000006
 30
0.0
  0
VERTEX
  8
6
 10
299.001180000000033
 20
125.0010200000000111
 30
0.0
  0
SEQEND
  0
POLYLINE
  8
6
  6
LINETYPE_2
 66
     1
 10
0.0
 20
0.0
 30
0.0
  0
VERTEX
  8
6
 10
294.002460000000042
 20
118.000780000000006
 30
0.0
  0
VERTEX
  8
6
 10
299.001180000000033
 20
122.9995000000000118
 30
0.0
  0
SEQEND
  0
POLYLINE
  8
6
  6
LINETYPE_2
 66
     1
 10
0.0
 20
0.0
 30
0.0
  0
VERTEX
  8
6
 10
296.001440000000002
 20
118.000780000000006
 30
0.0
  0
VERTEX
  8
6
 10
299.001180000000033
 20
121.0005200000000087
 30
0.0
  0
SEQEND
  0
POLYLINE
  8
6
  6
LINETYPE_2
 66
     1
 10
0.0
 20
0.0
 30
0.0
  0
VERTEX
  8
6
 10
298.00296000000003
 20
118.000780000000006
 30
0.0
  0
VERTEX
  8
6
 10
299.001180000000033
 20
118.9990000000000094
 30
0.0
  0
SEQEND
  0
TEXT
999
CadStd_TT=1
  8
6
 10
243.001800000000003
 20
132.999480000000005
 30
0.0
 40
1.7500600000000002
  1
PROTECTION RELAY PROGRAM:
 50
0.00000000000
  0
TEXT
999
CadStd_TT=1
  8
6
 10
270.00200000000001
 20
111.9987600000000043
 30
0.0
 40
1.7500600000000002
  1
8.0%%DC
 50
0.00000000000
  0
TEXT
999
CadStd_TT=1
  8
6
 10
263.004300000000001
 20
115.0010400000000033
 30
0.0
 40
1.7500600000000002
  1
-0.5%%D
 50
0.00000000000
  0
TEXT
999
CadStd_TT=1
  8
6
 10
278.000460000000032
 20
115.0010400000000033
 30
0.0
 40
1.7500600000000002
  1
+0.5%%D
 50
0.00000000000
  0
TEXT
999
CadStd_TT=1
  8
6
 10
172.001180000000005
 20
75.0011200000000002
 30
0.0
 40
1.7500600000000002
  1
AIR TEMPERATURE IS MAINTAINED
 50
0.00000000000
  0
TEXT
999
CadStd_TT=1
  8
6
 10
172.001180000000005
 20
71.0006199999999978
 30
0.0
 40
1.7500600000000002
  1
AT AROUND 13.8%%DC WITH THESE
 50
0.00000000000
  0
TEXT
999
CadStd_TT=1
  8
6
 10
172.001180000000005
 20
67.0001200000000097
 30
0.0
 40
1.7500600000000002
  1
SETTINGS.
 50
0.00000000000
  0
TEXT
999
CadStd_TT=1
  8
6
 10
172.001180000000005
 20
61.9988600000000005
 30
0.0
 40
1.7500600000000002
  1
ALARM WILL SOUND IF AIR
 50
0.00000000000
  0
TEXT
999
CadStd_TT=1
  8
6
 10
172.001180000000005
 20
57.9983600000000052
 30
0.0
 40
1.7500600000000002
  1
TEMPERATURE EXECEEDS 16.2%%DC OR
 50
0.00000000000
  0
TEXT
999
CadStd_TT=1
  8
6
 10
172.003720000000015
 20
54.0004000000000062
 30
0.0
 40
1.7500600000000002
  1
FALLS BELOW 12.2%%DC.
 50
0.00000000000
  0
TEXT
999
CadStd_TT=1
  8
6
 10
243.001800000000003
 20
95.9993000000000052
 30
0.0
 40
1.7500600000000002
  1
FAULTY MASTER RELAY CONTACTS OCCURS
 50
0.00000000000
  0
TEXT
999
CadStd_TT=1
  8
6
 10
243.001800000000003
 20
92.001339999999999
 30
0.0
 40
1.7500600000000002
  1
IF THE LIQUID TEMPERATURE FALLS BELOW 7.5%%DC.
 50
0.00000000000
  0
TEXT
999
CadStd_TT=1
  8
6
 10
243.001800000000003
 20
99.9998000000000076
 30
0.0
 40
1.7500600000000002
  1
PROTECTION AGAINST FREEZING DUE TO
 50
0.00000000000
  0
TEXT
999
CadStd_TT=1
  8
2
 10
61.0031800000000004
 20
152.00376
 30
0.0
 40
1.7500600000000002
  1
X1
 50
0.00000000000
  0
TEXT
999
CadStd_TT=1
  8
2
 10
11.0032800000000002
 20
136.004300000000001
 30
0.0
 40
1.7500600000000002
  1
X2
 50
0.00000000000
  0
TEXT
999
CadStd_TT=1
  8
2
 10
76.0018799999999999
 20
140.004800000000017
 30
0.0
 40
1.7500600000000002
  1
X3
 50
0.00000000000
  0
TEXT
999
CadStd_TT=1
  8
2
 10
62.0039400000000072
 20
118.0033200000000022
 30
0.0
 40
1.7500600000000002
  1
X4
 50
0.00000000000
  0
TEXT
999
CadStd_TT=1
  8
2
 10
40.0024599999999992
 20
149.004019999999997
 30
0.0
 40
1.7500600000000002
  1
1
 50
0.00000000000
  0
TEXT
999
CadStd_TT=1
  8
2
 10
47.0027000000000044
 20
149.004019999999997
 30
0.0
 40
1.7500600000000002
  1
2
 50
0.00000000000
  0
TEXT
999
CadStd_TT=1
  8
2
 10
54.0029400000000024
 20
149.004019999999997
 30
0.0
 40
1.7500600000000002
  1
3
 50
0.00000000000
  0
TEXT
999
CadStd_TT=1
  8
2
 10
24.0030000000000001
 20
126.0017800000000108
 30
0.0
 40
1.7500600000000002
  1
1
 50
0.00000000000
  0
TEXT
999
CadStd_TT=1
  8
2
 10
44.0029600000000016
 20
115.0035800000000137
 30
0.0
 40
1.7500600000000002
  1
1
 50
0.00000000000
  0
TEXT
999
CadStd_TT=1
  8
2
 10
69.0041800000000052
 20
130.002280000000013
 30
0.0
 40
1.7500600000000002
  1
1
 50
0.00000000000
  0
TEXT
999
CadStd_TT=1
  8
2
 10
24.0030000000000001
 20
133.002020000000016
 30
0.0
 40
1.7500600000000002
  1
2
 50
0.00000000000
  0
TEXT
999
CadStd_TT=1
  8
2
 10
69.0041800000000052
 20
137.002520000000004
 30
0.0
 40
1.7500600000000002
  1
2
 50
0.00000000000
  0
TEXT
999
CadStd_TT=1
  8
2
 10
51.0031999999999996
 20
115.0035800000000137
 30
0.0
 40
1.7500600000000002
  1
2
 50
0.00000000000
  0
TEXT
999
CadStd_TT=1
  8
2
 10
44.0029600000000016
 20
108.0033400000000086
 30
0.0
 40
1.7500600000000002
  1
3
 50
0.00000000000
  0
TEXT
999
CadStd_TT=1
  8
2
 10
51.0031999999999996
 20
108.0033400000000086
 30
0.0
 40
1.7500600000000002
  1
4
 50
0.00000000000
  0
TEXT
999
CadStd_TT=1
  8
12
 10
55.003700000000002
 20
81.0031400000000019
 30
0.0
 40
1.7500600000000002
  1
COMPRESSOR
 50
0.00000000000
  0
TEXT
999
CadStd_TT=1
  8
12
 10
19.0042800000000014
 20
81.0031400000000019
 30
0.0
 40
1.7500600000000002
  1
DEFROST
 50
0.00000000000
  0
TEXT
999
CadStd_TT=1
  8
12
 10
19.0042800000000014
 20
78.000860000000003
 30
0.0
 40
1.7500600000000002
  1
ELEMENT
 50
0.00000000000
  0
TEXT
999
CadStd_TT=1
  8
12
 10
55.003700000000002
 20
78.000860000000003
 30
0.0
 40
1.7500600000000002
  1
MOTOR
 50
0.00000000000
  0
TEXT
999
CadStd_TT=1
  8
12
 10
61.0031800000000004
 20
149.004019999999997
 30
0.0
 40
1.7500600000000002
  1
Thermostat
 50
0.00000000000
  0
TEXT
999
CadStd_TT=1
  8
12
 10
61.0031800000000004
 20
146.004280000000023
 30
0.0
 40
1.7500600000000002
  1
Supply
 50
0.00000000000
  0
TEXT
999
CadStd_TT=1
  8
12
 10
11.0032800000000002
 20
133.004559999999998
 30
0.0
 40
1.7500600000000002
  1
Door
 50
0.00000000000
  0
TEXT
999
CadStd_TT=1
  8
12
 10
11.0032800000000002
 20
130.004819999999995
 30
0.0
 40
1.7500600000000002
  1
Switch
 50
0.00000000000
  0
TEXT
999
CadStd_TT=1
  8
12
 10
76.0018799999999999
 20
137.005060000000014
 30
0.0
 40
1.7500600000000002
  1
Light
 50
0.00000000000
  0
TEXT
999
CadStd_TT=1
  8
12
 10
62.0039400000000072
 20
115.0035800000000137
 30
0.0
 40
1.7500600000000002
  1
Defrost
 50
0.00000000000
  0
TEXT
999
CadStd_TT=1
  8
12
 10
62.0039400000000072
 20
112.0038400000000109
 30
0.0
 40
1.7500600000000002
  1
Element
 50
0.00000000000
  0
TEXT
999
CadStd_TT=2
  8
12
 10
39.0042400000000029
 20
160.002220000000023
 30
0.0
 40
3.5001200000000003
  1
N
 50
0.00000000000
  0
TEXT
999
CadStd_TT=2
  8
12
 10
53.0047200000000061
 20
160.002220000000023
 30
0.0
 40
3.5001200000000003
  1
A
 50
0.00000000000
  0
TEXT
999
CadStd_TT=1
  8
12
 10
36.0045000000000002
 20
92.0038800000000094
 30
0.0
 40
1.7500600000000002
  1
FROST
 50
0.00000000000
  0
TEXT
999
CadStd_TT=1
  8
12
 10
36.0045000000000002
 20
89.0041400000000067
 30
0.0
 40
1.7500600000000002
  1
KLIXON
 50
0.00000000000
  0
TEXT
999
CadStd_TT=2
  8
12
 10
31.0032400000000017
 20
170.002200000000016
 30
0.0
 40
3.5001200000000003
  1
CONNECTORS
 50
0.00000000000
  0
CIRCLE
  8
5
  6
LINETYPE_1
999
CadStd_LW=0.6096
 10
45.0037200000000013
 20
116.0018000000000029
 30
0.0
 40
1.9989800000000002
  0
CIRCLE
  8
5
  6
LINETYPE_1
999
CadStd_LW=0.6096
 10
52.0039600000000064
 20
116.0018000000000029
 30
0.0
 40
1.9989800000000002
  0
CIRCLE
  8
5
  6
LINETYPE_1
999
CadStd_LW=0.6096
 10
45.0037200000000013
 20
109.0041000000000082
 30
0.0
 40
1.9989800000000002
  0
CIRCLE
  8
5
  6
LINETYPE_1
999
CadStd_LW=0.6096
 10
52.0039600000000064
 20
109.0041000000000082
 30
0.0
 40
1.9989800000000002
  0
POLYLINE
  8
5
  6
LINETYPE_1
 66
     1
 70
     1
 10
0.0
 20
0.0
 30
0.0
  0
VERTEX
  8
5
 10
41.003220000000006
 20
120.0023000000000053
 30
0.0
  0
VERTEX
  8
5
 10
56.0044600000000017
 20
120.0023000000000053
 30
0.0
  0
VERTEX
  8
5
 10
56.0044600000000017
 20
105.0036000000000058
 30
0.0
  0
VERTEX
  8
5
 10
41.003220000000006
 20
105.0036000000000058
 30
0.0
  0
SEQEND
  0
CIRCLE
  8
5
  6
LINETYPE_1
999
CadStd_LW=0.6096
 10
41.003220000000006
 20
150.00224
 30
0.0
 40
1.9989800000000002
  0
CIRCLE
  8
5
  6
LINETYPE_1
999
CadStd_LW=0.6096
 10
48.003460000000004
 20
150.00224
 30
0.0
 40
1.9989800000000002
  0
CIRCLE
  8
5
  6
LINETYPE_1
999
CadStd_LW=0.6096
 10
55.0062400000000054
 20
150.00224
 30
0.0
 40
1.9989800000000002
  0
POLYLINE
  8
5
  6
LINETYPE_1
 66
     1
 70
     1
 10
0.0
 20
0.0
 30
0.0
  0
VERTEX
  8
5
 10
37.0027200000000036
 20
154.002740000000017
 30
0.0
  0
VERTEX
  8
5
 10
59.0042000000000044
 20
154.002740000000017
 30
0.0
  0
VERTEX
  8
5
 10
59.0042000000000044
 20
146.001740000000012
 30
0.0
  0
VERTEX
  8
5
 10
37.0027200000000036
 20
146.001740000000012
 30
0.0
  0
SEQEND
  0
POLYLINE
  8
1
  6
LINETYPE_1
 66
     1
 10
0.0
 20
0.0
 30
0.0
  0
VERTEX
  8
1
 10
43.0047400000000053
 20
116.0018000000000029
 30
0.0
  0
VERTEX
  8
1
 10
23.0047800000000002
 20
116.0018000000000029
 30
0.0
  0
SEQEND
  0
POLYLINE
  8
1
  6
LINETYPE_1
 66
     1
 10
0.0
 20
0.0
 30
0.0
  0
VERTEX
  8
1
 10
35.0037400000000005
 20
109.0041000000000082
 30
0.0
  0
VERTEX
  8
1
 10
43.002200000000002
 20
109.0041000000000082
 30
0.0
  0
SEQEND
  0
POLYLINE
  8
1
  6
LINETYPE_1
 66
     1
 10
0.0
 20
0.0
 30
0.0
  0
VERTEX
  8
1
 10
37.0027200000000036
 20
96.0018400000000014
 30
0.0
  0
VERTEX
  8
1
 10
23.0022400000000005
 20
96.0018400000000014
 30
0.0
  0
SEQEND
  0
POLYLINE
  8
1
  6
LINETYPE_1
 66
     1
 10
0.0
 20
0.0
 30
0.0
  0
VERTEX
  8
1
 10
37.0027200000000036
 20
99.0041200000000003
 30
0.0
  0
VERTEX
  8
1
 10
37.0027200000000036
 20
96.0018400000000014
 30
0.0
  0
SEQEND
  0
POLYLINE
  8
1
  6
LINETYPE_1
 66
     1
 10
0.0
 20
0.0
 30
0.0
  0
VERTEX
  8
1
 10
52.0039600000000064
 20
96.0018400000000014
 30
0.0
  0
VERTEX
  8
1
 10
52.0039600000000064
 20
107.0025800000000089
 30
0.0
  0
SEQEND
  0
POLYLINE
  8
1
  6
LINETYPE_1
 66
     1
 10
0.0
 20
0.0
 30
0.0
  0
VERTEX
  8
1
 10
23.0047800000000002
 20
85.0036400000000043
 30
0.0
  0
VERTEX
  8
1
 10
25.0037600000000033
 20
87.0051600000000036
 30
0.0
  0
SEQEND
  0
POLYLINE
  8
1
  6
LINETYPE_1
 66
     1
 10
0.0
 20
0.0
 30
0.0
  0
VERTEX
  8
1
 10
23.0047800000000002
 20
85.0036400000000043
 30
0.0
  0
VERTEX
  8
1
 10
21.0032600000000009
 20
87.0051600000000036
 30
0.0
  0
SEQEND
  0
POLYLINE
  8
1
  6
LINETYPE_1
 66
     1
 10
0.0
 20
0.0
 30
0.0
  0
VERTEX
  8
1
 10
23.0047800000000002
 20
85.0036400000000043
 30
0.0
  0
VERTEX
  8
1
 10
23.0047800000000002
 20
116.0018000000000029
 30
0.0
  0
SEQEND
  0
CIRCLE
  8
5
  6
LINETYPE_1
999
CadStd_LW=0.6096
 10
70.0049400000000048
 20
138.000740000000008
 30
0.0
 40
1.9989800000000002
  0
CIRCLE
  8
5
  6
LINETYPE_1
999
CadStd_LW=0.6096
 10
70.0049400000000048
 20
131.003039999999999
 30
0.0
 40
1.9989800000000002
  0
POLYLINE
  8
5
  6
LINETYPE_1
 66
     1
 70
     1
 10
0.0
 20
0.0
 30
0.0
  0
VERTEX
  8
5
 10
66.0044400000000024
 20
142.001239999999996
 30
0.0
  0
VERTEX
  8
5
 10
74.0054400000000072
 20
142.003780000000006
 30
0.0
  0
VERTEX
  8
5
 10
74.0054400000000072
 20
127.0025400000000104
 30
0.0
  0
VERTEX
  8
5
 10
66.0044400000000024
 20
127.0025400000000104
 30
0.0
  0
SEQEND
  0
POLYLINE
  8
1
  6
LINETYPE_1
 66
     1
 10
0.0
 20
0.0
 30
0.0
  0
VERTEX
  8
1
 10
68.0034200000000055
 20
131.003039999999999
 30
0.0
  0
VERTEX
  8
1
 10
52.0039600000000064
 20
131.003039999999999
 30
0.0
  0
SEQEND
  0
CIRCLE
  8
5
  6
LINETYPE_1
999
CadStd_LW=0.6096
 10
25.0037600000000033
 20
134.000240000000019
 30
0.0
 40
1.9989800000000002
  0
CIRCLE
  8
5
  6
LINETYPE_1
999
CadStd_LW=0.6096
 10
25.0037600000000033
 20
127.0025400000000104
 30
0.0
 40
1.9989800000000002
  0
POLYLINE
  8
5
  6
LINETYPE_1
 66
     1
 70
     1
 10
0.0
 20
0.0
 30
0.0
  0
VERTEX
  8
5
 10
21.0032600000000009
 20
138.000740000000008
 30
0.0
  0
VERTEX
  8
5
 10
29.0042600000000022
 20
138.003280000000018
 30
0.0
  0
VERTEX
  8
5
 10
29.0042600000000022
 20
123.002040000000008
 30
0.0
  0
VERTEX
  8
5
 10
21.0032600000000009
 20
123.002040000000008
 30
0.0
  0
SEQEND
  0
POLYLINE
  8
1
  6
LINETYPE_1
 66
     1
 10
0.0
 20
0.0
 30
0.0
  0
VERTEX
  8
1
 10
27.0027400000000029
 20
134.002780000000001
 30
0.0
  0
VERTEX
  8
1
 10
49.0042200000000037
 20
134.002780000000001
 30
0.0
  0
SEQEND
  0
POLYLINE
  8
1
  6
LINETYPE_1
 66
     1
 10
0.0
 20
0.0
 30
0.0
  0
VERTEX
  8
1
 10
52.0039600000000064
 20
131.003039999999999
 30
0.0
  0
VERTEX
  8
1
 10
49.0042200000000037
 20
134.002780000000001
 30
0.0
  0
SEQEND
  0
POLYLINE
  8
1
  6
LINETYPE_1
 66
     1
 10
0.0
 20
0.0
 30
0.0
  0
VERTEX
  8
1
 10
35.0037400000000005
 20
109.0041000000000082
 30
0.0
  0
VERTEX
  8
1
 10
35.0037400000000005
 20
132.006339999999994
 30
0.0
  0
SEQEND
  0
POLYLINE
  8
1
  6
LINETYPE_1
 66
     1
 10
0.0
 20
0.0
 30
0.0
  0
VERTEX
  8
1
 10
48.003460000000004
 20
145.006060000000019
 30
0.0
  0
VERTEX
  8
1
 10
48.003460000000004
 20
148.003260000000012
 30
0.0
  0
SEQEND
  0
POLYLINE
  8
1
  6
LINETYPE_1
 66
     1
 10
0.0
 20
0.0
 30
0.0
  0
VERTEX
  8
1
 10
48.003460000000004
 20
145.006060000000019
 30
0.0
  0
VERTEX
  8
1
 10
35.0037400000000005
 20
132.006339999999994
 30
0.0
  0
SEQEND
  0
POLYLINE
  8
1
  6
LINETYPE_1
 66
     1
 10
0.0
 20
0.0
 30
0.0
  0
VERTEX
  8
1
 10
59.0042000000000044
 20
85.0036400000000043
 30
0.0
  0
VERTEX
  8
1
 10
59.0042000000000044
 20
116.0018000000000029
 30
0.0
  0
SEQEND
  0
POLYLINE
  8
1
  6
LINETYPE_1
 66
     1
 10
0.0
 20
0.0
 30
0.0
  0
VERTEX
  8
1
 10
59.0042000000000044
 20
85.0036400000000043
 30
0.0
  0
VERTEX
  8
1
 10
57.0052200000000013
 20
87.0051600000000036
 30
0.0
  0
SEQEND
  0
POLYLINE
  8
1
  6
LINETYPE_1
 66
     1
 10
0.0
 20
0.0
 30
0.0
  0
VERTEX
  8
1
 10
59.0042000000000044
 20
85.0036400000000043
 30
0.0
  0
VERTEX
  8
1
 10
61.0057200000000037
 20
87.0051600000000036
 30
0.0
  0
SEQEND
  0
POLYLINE
  8
1
  6
LINETYPE_1
 66
     1
 10
0.0
 20
0.0
 30
0.0
  0
VERTEX
  8
1
 10
59.0042000000000044
 20
116.0018000000000029
 30
0.0
  0
VERTEX
  8
1
 10
54.0029400000000024
 20
116.0018000000000029
 30
0.0
  0
SEQEND
  0
POLYLINE
  8
1
  6
LINETYPE_8
 66
     1
 10
0.0
 20
0.0
 30
0.0
  0
VERTEX
  8
1
 10
45.0037200000000013
 20
127.0025400000000104
 30
0.0
  0
VERTEX
  8
1
 10
55.003700000000002
 20
137.002520000000004
 30
0.0
  0
SEQEND
  0
POLYLINE
  8
1
  6
LINETYPE_8
 66
     1
 10
0.0
 20
0.0
 30
0.0
  0
VERTEX
  8
1
 10
55.003700000000002
 20
148.003260000000012
 30
0.0
  0
VERTEX
  8
1
 10
55.003700000000002
 20
137.002520000000004
 30
0.0
  0
SEQEND
  0
POLYLINE
  8
1
  6
LINETYPE_8
 66
     1
 10
0.0
 20
0.0
 30
0.0
  0
VERTEX
  8
1
 10
45.0037200000000013
 20
127.0025400000000104
 30
0.0
  0
VERTEX
  8
1
 10
27.0027400000000029
 20
127.0025400000000104
 30
0.0
  0
SEQEND
  0
POLYLINE
  8
1
  6
LINETYPE_8
 66
     1
 10
0.0
 20
0.0
 30
0.0
  0
VERTEX
  8
1
 10
55.003700000000002
 20
152.00376
 30
0.0
  0
VERTEX
  8
1
 10
55.003700000000002
 20
159.004000000000019
 30
0.0
  0
SEQEND
  0
CIRCLE
  8
1
  6
LINETYPE_1
999
CadStd_LW=0.6096
 10
23.0022400000000005
 20
96.0018400000000014
 30
0.0
 40
0.4978400000000000
  0
CIRCLE
  8
1
  6
LINETYPE_1
999
CadStd_LW=0.6096
 10
44.0029600000000016
 20
96.0018400000000014
 30
0.0
 40
1.0007600000000001
  0
POLYLINE
  8
1
  6
LINETYPE_1
 66
     1
 10
0.0
 20
0.0
 30
0.0
  0
VERTEX
  8
1
 10
45.0037200000000013
 20
96.0018400000000014
 30
0.0
  0
VERTEX
  8
1
 10
52.0039600000000064
 20
96.0018400000000014
 30
0.0
  0
SEQEND
  0
POLYLINE
  8
1
  6
LINETYPE_1
 66
     1
 10
0.0
 20
0.0
 30
0.0
  0
VERTEX
  8
1
 10
43.0326799999999992
 20
96.2456800000000072
 30
0.0
  0
VERTEX
  8
1
 10
36.0045000000000002
 20
98.0033600000000007
 30
0.0
  0
SEQEND
  0
POLYLINE
  8
1
  6
LINETYPE_2
 66
     1
 10
0.0
 20
0.0
 30
0.0
  0
VERTEX
  8
1
 10
41.003220000000006
 20
152.00376
 30
0.0
  0
VERTEX
  8
1
 10
41.003220000000006
 20
159.004000000000019
 30
0.0
  0
SEQEND
  0
POLYLINE
  8
1
  6
LINETYPE_2
 66
     1
 10
0.0
 20
0.0
 30
0.0
  0
VERTEX
  8
1
 10
41.003220000000006
 20
148.003260000000012
 30
0.0
  0
VERTEX
  8
1
 10
41.003220000000006
 20
142.003780000000006
 30
0.0
  0
SEQEND
  0
POLYLINE
  8
1
  6
LINETYPE_2
 66
     1
 10
0.0
 20
0.0
 30
0.0
  0
VERTEX
  8
1
 10
68.0034200000000055
 20
138.003280000000018
 30
0.0
  0
VERTEX
  8
1
 10
45.0037200000000013
 20
138.003280000000018
 30
0.0
  0
SEQEND
  0
POLYLINE
  8
1
  6
LINETYPE_2
 66
     1
 10
0.0
 20
0.0
 30
0.0
  0
VERTEX
  8
1
 10
45.0037200000000013
 20
138.003280000000018
 30
0.0
  0
VERTEX
  8
1
 10
41.003220000000006
 20
142.003780000000006
 30
0.0
  0
SEQEND
  0
POLYLINE
  8
4
  6
LINETYPE_2
 66
     1
 70
     1
 10
0.0
 20
0.0
 30
0.0
  0
VERTEX
  8
4
 10
1.0007600000000001
 20
295.998899999999992
 30
0.0
  0
VERTEX
  8
4
 10
419.000940000000014
 20
295.998899999999992
 30
0.0
  0
VERTEX
  8
4
 10
419.000940000000014
 20
1.0007600000000001
 30
0.0
  0
VERTEX
  8
4
 10
1.0007600000000001
 20
1.0007600000000001
 30
0.0
  0
SEQEND
  0
TEXT
999
CadStd_TT=3
  8
6
 10
18.9992000000000019
 20
266.001500000000021
 30
0.0
 40
5.0012600000000003
  1
WINE CELLAR
 50
0.00000000000
  0
TEXT
999
CadStd_TT=3
  8
6
 10
19.9999600000000015
 20
256.001520000000028
 30
0.0
 40
5.0012600000000003
  1
FREEZER
 50
0.00000000000
  0
TEXT
999
CadStd_TT=3
  8
6
 10
19.9999600000000015
 20
246.001540000000006
 30
0.0
 40
5.0012600000000003
  1
CONVERSION
 50
0.00000000000
  0
TEXT
999
CadStd_TT=1
  8
12
 10
183.004460000000023
 20
216.99982
 30
0.0
 40
1.7500600000000002
  1
MASTER
 50
0.00000000000
  0
TEXT
999
CadStd_TT=1
  8
12
 10
183.004460000000023
 20
214.000080000000025
 30
0.0
 40
1.7500600000000002
  1
CONTROLLER
 50
0.00000000000
  0
TEXT
999
CadStd_TT=1
  8
12
 10
254.005080000000021
 20
214.000080000000025
 30
0.0
 40
1.7500600000000002
  1
CONTROLLER
 50
0.00000000000
  0
ENDSEC
  0
EOF
